  0
SECTION
  2
HEADER
  9
$ACADVER
  1
AC1018
  9
$ACADMAINTVER
 70
    39
  9
$DWGCODEPAGE
  3
ANSI_1252
  9
$LASTSAVEDBY
  1
Autodesk
  9
$INSBASE
 10
0.0
 20
0.0
 30
0.0
  9
$EXTMIN
 10
2342237.29191489
 20
4857866.644999998
 30
0.0
  9
$EXTMAX
 10
2343761.269
 20
4858573.583174931
 30
0.0
  9
$LIMMIN
 10
0.0
 20
0.0
  9
$LIMMAX
 10
420.0
 20
297.0
  9
$ORTHOMODE
 70
     0
  9
$REGENMODE
 70
     1
  9
$FILLMODE
 70
     1
  9
$QTEXTMODE
 70
     0
  9
$MIRRTEXT
 70
     0
  9
$LTSCALE
 40
1.0
  9
$ATTMODE
 70
     1
  9
$TEXTSIZE
 40
2.5
  9
$TRACEWID
 40
1.0
  9
$TEXTSTYLE
  7
Standard
  9
$CLAYER
  8
0
  9
$CELTYPE
  6
ByLayer
  9
$CECOLOR
 62
   256
  9
$CELTSCALE
 40
1.0
  9
$DISPSILH
 70
     0
  9
$DIMSCALE
 40
1.0
  9
$DIMASZ
 40
2.5
  9
$DIMEXO
 40
0.625
  9
$DIMDLI
 40
3.75
  9
$DIMRND
 40
0.0
  9
$DIMDLE
 40
0.0
  9
$DIMEXE
 40
1.25
  9
$DIMTP
 40
0.0
  9
$DIMTM
 40
0.0
  9
$DIMTXT
 40
2.5
  9
$DIMCEN
 40
2.5
  9
$DIMTSZ
 40
0.0
  9
$DIMTOL
 70
     0
  9
$DIMLIM
 70
     0
  9
$DIMTIH
 70
     0
  9
$DIMTOH
 70
     0
  9
$DIMSE1
 70
     0
  9
$DIMSE2
 70
     0
  9
$DIMTAD
 70
     1
  9
$DIMZIN
 70
     8
  9
$DIMBLK
  1

  9
$DIMASO
 70
     1
  9
$DIMSHO
 70
     1
  9
$DIMPOST
  1

  9
$DIMAPOST
  1

  9
$DIMALT
 70
     0
  9
$DIMALTD
 70
     3
  9
$DIMALTF
 40
0.03937007874016
  9
$DIMLFAC
 40
1.0
  9
$DIMTOFL
 70
     1
  9
$DIMTVP
 40
0.0
  9
$DIMTIX
 70
     0
  9
$DIMSOXD
 70
     0
  9
$DIMSAH
 70
     0
  9
$DIMBLK1
  1

  9
$DIMBLK2
  1

  9
$DIMSTYLE
  2
ISO-25
  9
$DIMCLRD
 70
     0
  9
$DIMCLRE
 70
     0
  9
$DIMCLRT
 70
     0
  9
$DIMTFAC
 40
1.0
  9
$DIMGAP
 40
0.625
  9
$DIMJUST
 70
     0
  9
$DIMSD1
 70
     0
  9
$DIMSD2
 70
     0
  9
$DIMTOLJ
 70
     0
  9
$DIMTZIN
 70
     8
  9
$DIMALTZ
 70
     0
  9
$DIMALTTZ
 70
     0
  9
$DIMUPT
 70
     0
  9
$DIMDEC
 70
     2
  9
$DIMTDEC
 70
     2
  9
$DIMALTU
 70
     2
  9
$DIMALTTD
 70
     3
  9
$DIMTXSTY
  7
Standard
  9
$DIMAUNIT
 70
     0
  9
$DIMADEC
 70
     0
  9
$DIMALTRND
 40
0.0
  9
$DIMAZIN
 70
     0
  9
$DIMDSEP
 70
    44
  9
$DIMATFIT
 70
     3
  9
$DIMFRAC
 70
     0
  9
$DIMLDRBLK
  1

  9
$DIMLUNIT
 70
     2
  9
$DIMLWD
 70
    -2
  9
$DIMLWE
 70
    -2
  9
$DIMTMOVE
 70
     0
  9
$LUNITS
 70
     2
  9
$LUPREC
 70
     4
  9
$SKETCHINC
 40
1.0
  9
$FILLETRAD
 40
0.0
  9
$AUNITS
 70
     0
  9
$AUPREC
 70
     0
  9
$MENU
  1
.
  9
$ELEVATION
 40
0.0
  9
$PELEVATION
 40
0.0
  9
$THICKNESS
 40
0.0
  9
$LIMCHECK
 70
     0
  9
$CHAMFERA
 40
0.0
  9
$CHAMFERB
 40
0.0
  9
$CHAMFERC
 40
0.0
  9
$CHAMFERD
 40
0.0
  9
$SKPOLY
 70
     0
  9
$TDCREATE
 40
2456610.775528032
  9
$TDUCREATE
 40
2456610.733861366
  9
$TDUPDATE
 40
2456610.776112327
  9
$TDUUPDATE
 40
2456610.734445660
  9
$TDINDWG
 40
0.0005848727
  9
$TDUSRTIMER
 40
0.0005847569
  9
$USRTIMER
 70
     1
  9
$ANGBASE
 50
0.0
  9
$ANGDIR
 70
     0
  9
$PDMODE
 70
     0
  9
$PDSIZE
 40
0.0
  9
$PLINEWID
 40
0.0
  9
$SPLFRAME
 70
     0
  9
$SPLINETYPE
 70
     6
  9
$SPLINESEGS
 70
     8
  9
$HANDSEED
  5
178
  9
$SURFTAB1
 70
     6
  9
$SURFTAB2
 70
     6
  9
$SURFTYPE
 70
     6
  9
$SURFU
 70
     6
  9
$SURFV
 70
     6
  9
$UCSBASE
  2

  9
$UCSNAME
  2

  9
$UCSORG
 10
0.0
 20
0.0
 30
0.0
  9
$UCSXDIR
 10
1.0
 20
0.0
 30
0.0
  9
$UCSYDIR
 10
0.0
 20
1.0
 30
0.0
  9
$UCSORTHOREF
  2

  9
$UCSORTHOVIEW
 70
     0
  9
$UCSORGTOP
 10
0.0
 20
0.0
 30
0.0
  9
$UCSORGBOTTOM
 10
0.0
 20
0.0
 30
0.0
  9
$UCSORGLEFT
 10
0.0
 20
0.0
 30
0.0
  9
$UCSORGRIGHT
 10
0.0
 20
0.0
 30
0.0
  9
$UCSORGFRONT
 10
0.0
 20
0.0
 30
0.0
  9
$UCSORGBACK
 10
0.0
 20
0.0
 30
0.0
  9
$PUCSBASE
  2

  9
$PUCSNAME
  2

  9
$PUCSORG
 10
0.0
 20
0.0
 30
0.0
  9
$PUCSXDIR
 10
1.0
 20
0.0
 30
0.0
  9
$PUCSYDIR
 10
0.0
 20
1.0
 30
0.0
  9
$PUCSORTHOREF
  2

  9
$PUCSORTHOVIEW
 70
     0
  9
$PUCSORGTOP
 10
0.0
 20
0.0
 30
0.0
  9
$PUCSORGBOTTOM
 10
0.0
 20
0.0
 30
0.0
  9
$PUCSORGLEFT
 10
0.0
 20
0.0
 30
0.0
  9
$PUCSORGRIGHT
 10
0.0
 20
0.0
 30
0.0
  9
$PUCSORGFRONT
 10
0.0
 20
0.0
 30
0.0
  9
$PUCSORGBACK
 10
0.0
 20
0.0
 30
0.0
  9
$USERI1
 70
     0
  9
$USERI2
 70
     0
  9
$USERI3
 70
     0
  9
$USERI4
 70
     0
  9
$USERI5
 70
     0
  9
$USERR1
 40
0.0
  9
$USERR2
 40
0.0
  9
$USERR3
 40
0.0
  9
$USERR4
 40
0.0
  9
$USERR5
 40
0.0
  9
$WORLDVIEW
 70
     1
  9
$SHADEDGE
 70
     3
  9
$SHADEDIF
 70
    70
  9
$TILEMODE
 70
     1
  9
$MAXACTVP
 70
    64
  9
$PINSBASE
 10
0.0
 20
0.0
 30
0.0
  9
$PLIMCHECK
 70
     0
  9
$PEXTMIN
 10
0.0
 20
0.0
 30
0.0
  9
$PEXTMAX
 10
0.0
 20
0.0
 30
0.0
  9
$PLIMMIN
 10
0.0
 20
0.0
  9
$PLIMMAX
 10
12.0
 20
9.0
  9
$UNITMODE
 70
     0
  9
$VISRETAIN
 70
     1
  9
$PLINEGEN
 70
     0
  9
$PSLTSCALE
 70
     1
  9
$TREEDEPTH
 70
  3020
  9
$CMLSTYLE
  2
Standard
  9
$CMLJUST
 70
     0
  9
$CMLSCALE
 40
20.0
  9
$PROXYGRAPHICS
 70
     1
  9
$MEASUREMENT
 70
     1
  9
$CELWEIGHT
370
    -1
  9
$ENDCAPS
280
     0
  9
$JOINSTYLE
280
     0
  9
$LWDISPLAY
290
     0
  9
$INSUNITS
 70
     4
  9
$HYPERLINKBASE
  1

  9
$STYLESHEET
  1

  9
$XEDIT
290
     1
  9
$CEPSNTYPE
380
     0
  9
$PSTYLEMODE
290
     1
  9
$FINGERPRINTGUID
  2
{14D61BEB-D017-422A-9A59-53BB1DA334EC}
  9
$VERSIONGUID
  2
{F256F30E-0955-4E81-A191-82FDEA0E61AE}
  9
$EXTNAMES
290
     1
  9
$PSVPSCALE
 40
0.0
  9
$OLESTARTUP
290
     0
  9
$SORTENTS
280
   127
  9
$INDEXCTL
280
     0
  9
$HIDETEXT
280
     1
  9
$XCLIPFRAME
290
     0
  9
$HALOGAP
280
     0
  9
$OBSCOLOR
 70
   257
  9
$OBSLTYPE
280
     0
  9
$INTERSECTIONDISPLAY
280
     0
  9
$INTERSECTIONCOLOR
 70
   257
  9
$DIMASSOC
280
     2
  9
$PROJECTNAME
  1

  0
ENDSEC
  0
SECTION
  2
CLASSES
  0
CLASS
  1
ACDBDICTIONARYWDFLT
  2
AcDbDictionaryWithDefault
  3
ObjectDBX Classes
 90
        0
 91
        1
280
     0
281
     0
  0
CLASS
  1
DICTIONARYVAR
  2
AcDbDictionaryVar
  3
ObjectDBX Classes
 90
        0
 91
        6
280
     0
281
     0
  0
CLASS
  1
TABLESTYLE
  2
AcDbTableStyle
  3
ObjectDBX Classes
 90
     2047
 91
        1
280
     0
281
     0
  0
CLASS
  1
SORTENTSTABLE
  2
AcDbSortentsTable
  3
ObjectDBX Classes
 90
        0
 91
        1
280
     0
281
     0
  0
ENDSEC
  0
SECTION
  2
TABLES
  0
TABLE
  2
VPORT
  5
8
330
0
100
AcDbSymbolTable
 70
     5
  0
VPORT
  5
177
330
8
100
AcDbSymbolTableRecord
100
AcDbViewportTableRecord
  2
*Active
 70
     0
 10
0.0
 20
0.0
 11
1.0
 21
1.0
 12
2342999.280457445
 22
4858220.114087463
 13
0.0
 23
0.0
 14
10.0
 24
10.0
 15
10.0
 25
10.0
 16
0.0
 26
0.0
 36
1.0
 17
0.0
 27
0.0
 37
0.0
 40
761.0218938723819
 41
2.010012515644555
 42
50.0
 43
0.0
 44
0.0
 50
0.0
 51
0.0
 71
     0
 72
  1000
 73
     1
 74
     3
 75
     0
 76
     0
 77
     0
 78
     0
281
     0
 65
     1
110
0.0
120
0.0
130
0.0
111
1.0
121
0.0
131
0.0
112
0.0
122
1.0
132
0.0
 79
     0
146
0.0
  0
ENDTAB
  0
TABLE
  2
LTYPE
  5
5
330
0
100
AcDbSymbolTable
 70
     1
  0
LTYPE
  5
14
330
5
100
AcDbSymbolTableRecord
100
AcDbLinetypeTableRecord
  2
ByBlock
 70
     0
  3

 72
    65
 73
     0
 40
0.0
  0
LTYPE
  5
15
330
5
100
AcDbSymbolTableRecord
100
AcDbLinetypeTableRecord
  2
ByLayer
 70
     0
  3

 72
    65
 73
     0
 40
0.0
  0
LTYPE
  5
16
330
5
100
AcDbSymbolTableRecord
100
AcDbLinetypeTableRecord
  2
Continuous
 70
     0
  3
Solid line
 72
    65
 73
     0
 40
0.0
  0
ENDTAB
  0
TABLE
  2
LAYER
  5
2
102
{ACAD_XDICTIONARY
360
F4
102
}
330
0
100
AcDbSymbolTable
 70
     2
  0
LAYER
  5
10
330
2
100
AcDbSymbolTableRecord
100
AcDbLayerTableRecord
  2
0
 70
     0
 62
     7
  6
Continuous
370
    -3
390
F
  0
LAYER
  5
EF
330
2
100
AcDbSymbolTableRecord
100
AcDbLayerTableRecord
  2
ZONE
 70
     0
 62
     9
  6
Continuous
370
    -3
390
F
1001
AcAecLayerStandard
1000

1000

  0
ENDTAB
  0
TABLE
  2
STYLE
  5
3
330
0
100
AcDbSymbolTable
 70
     2
  0
STYLE
  5
11
330
3
100
AcDbSymbolTableRecord
100
AcDbTextStyleTableRecord
  2
Standard
 70
     0
 40
0.0
 41
1.0
 50
0.0
 71
     0
 42
2.5
  3
txt
  4

  0
ENDTAB
  0
TABLE
  2
VIEW
  5
6
330
0
100
AcDbSymbolTable
 70
     0
  0
ENDTAB
  0
TABLE
  2
UCS
  5
7
330
0
100
AcDbSymbolTable
 70
     0
  0
ENDTAB
  0
TABLE
  2
APPID
  5
9
330
0
100
AcDbSymbolTable
 70
     4
  0
APPID
  5
12
330
9
100
AcDbSymbolTableRecord
100
AcDbRegAppTableRecord
  2
ACAD
 70
     0
  0
APPID
  5
9E
330
9
100
AcDbSymbolTableRecord
100
AcDbRegAppTableRecord
  2
ACAD_PSEXT
 70
     0
  0
APPID
  5
F2
330
9
100
AcDbSymbolTableRecord
100
AcDbRegAppTableRecord
  2
ADE
 70
     0
  0
APPID
  5
F3
330
9
100
AcDbSymbolTableRecord
100
AcDbRegAppTableRecord
  2
AcAecLayerStandard
 70
     0
  0
ENDTAB
  0
TABLE
  2
DIMSTYLE
  5
A
330
0
100
AcDbSymbolTable
 70
     2
100
AcDbDimStyleTable
 71
     1
340
27
  0
DIMSTYLE
105
27
330
A
100
AcDbSymbolTableRecord
100
AcDbDimStyleTableRecord
  2
ISO-25
 70
     0
 41
2.5
 42
0.625
 43
3.75
 44
1.25
 73
     0
 74
     0
 77
     1
 78
     8
140
2.5
141
2.5
143
0.03937007874016
147
0.625
171
     3
172
     1
271
     2
272
     2
274
     3
278
    44
283
     0
284
     8
340
11
  0
DIMSTYLE
105
F1
330
A
100
AcDbSymbolTableRecord
100
AcDbDimStyleTableRecord
  2
STANDARD
 70
     0
289
     0
340
11
  0
ENDTAB
  0
TABLE
  2
BLOCK_RECORD
  5
1
330
0
100
AcDbSymbolTable
 70
     2
  0
BLOCK_RECORD
  5
1F
330
1
100
AcDbSymbolTableRecord
100
AcDbBlockTableRecord
  2
*Model_Space
340
22
  0
BLOCK_RECORD
  5
D2
330
1
100
AcDbSymbolTableRecord
100
AcDbBlockTableRecord
  2
*Paper_Space
340
D3
  0
BLOCK_RECORD
  5
D6
330
1
100
AcDbSymbolTableRecord
100
AcDbBlockTableRecord
  2
*Paper_Space0
340
D7
  0
ENDTAB
  0
ENDSEC
  0
SECTION
  2
BLOCKS
  0
BLOCK
  5
20
330
1F
100
AcDbEntity
  8
0
100
AcDbBlockBegin
  2
*Model_Space
 70
     0
 10
0.0
 20
0.0
 30
0.0
  3
*Model_Space
  1

  0
ENDBLK
  5
21
330
1F
100
AcDbEntity
  8
0
100
AcDbBlockEnd
  0
BLOCK
  5
D4
330
D2
100
AcDbEntity
 67
     1
  8
0
100
AcDbBlockBegin
  2
*Paper_Space
 70
     0
 10
0.0
 20
0.0
 30
0.0
  3
*Paper_Space
  1

  0
ENDBLK
  5
D5
330
D2
100
AcDbEntity
 67
     1
  8
0
100
AcDbBlockEnd
  0
BLOCK
  5
D8
330
D6
100
AcDbEntity
  8
0
100
AcDbBlockBegin
  2
*Paper_Space0
 70
     0
 10
0.0
 20
0.0
 30
0.0
  3
*Paper_Space0
  1

  0
ENDBLK
  5
D9
330
D6
100
AcDbEntity
  8
0
100
AcDbBlockEnd
  0
ENDSEC
  0
SECTION
  2
ENTITIES
  0
HATCH
  5
12B
330
1F
100
AcDbEntity
  8
ZONE
100
AcDbHatch
 10
0.0
 20
0.0
 30
0.0
210
0.0
220
0.0
230
1.0
  2
SOLID
 70
     1
 71
     0
 91
        2
 92
        7
 72
     0
 73
     1
 93
        6
 10
2342407.030569446
 20
4858029.201123661
 10
2342407.02997715
 20
4858029.201531319
 10
2342406.67526268
 20
4858028.900204751
 10
2342411.246919851
 20
4858024.470904926
 10
2342411.253474266
 20
4858024.474028399
 10
2342409.836548337
 20
4858026.446473655
 97
        0
 92
        7
 72
     0
 73
     1
 93
        3
 10
2342404.731303751
 20
4858030.783630526
 10
2342406.675262682
 20
4858028.900204754
 10
2342407.029977152
 20
4858029.201531321
 97
        0
 75
     0
 76
     1
 47
0.0094830250635277
 98
        2
 10
2342407.492656377
 20
4858028.402177169
 10
2342406.581719792
 20
4858029.274618852
450
        0
451
        0
460
0.0
461
0.0
452
        0
462
0.0
453
        0
470

  0
LWPOLYLINE
  5
12C
330
1F
100
AcDbEntity
  8
ZONE
100
AcDbPolyline
 90
       13
 70
     0
 43
0.0
 10
2342663.539583895
 20
4858298.590002318
 10
2342830.132808654
 20
4858360.28929052
 10
2342794.613386499
 20
4858382.697745774
 10
2342778.065294014
 20
4858391.094760844
 10
2342724.249608168
 20
4858426.646958566
 10
2342681.909468987
 20
4858457.924202619
 10
2342676.108546577
 20
4858463.725125028
 10
2342653.088798827
 20
4858484.511801328
 10
2342643.000274704
 20
4858495.197315209
 42
0.2966247789024138
 10
2342637.700495105
 20
4858496.479736079
 10
2342617.093466432
 20
4858489.206449357
 42
0.4080141459211964
 10
2342614.008438138
 20
4858482.927750558
 10
2342662.784530126
 20
4858334.793958785
  0
LWPOLYLINE
  5
12D
330
1F
100
AcDbEntity
  8
ZONE
100
AcDbPolyline
 90
       13
 70
     0
 43
0.0
 10
2342482.384582778
 20
4858276.875400728
 10
2342482.38458278
 20
4858276.875400727
 10
2342474.361090976
 20
4858281.925690475
 10
2342473.185134688
 20
4858288.844941167
 10
2342471.139053419
 20
4858292.658692834
 10
2342437.382635463
 20
4858261.121812513
 10
2342454.249938336
 20
4858250.000037426
 10
2342486.031993879
 20
4858229.043938147
 10
2342563.093756854
 20
4858179.535422722
 10
2342576.59
 20
4858192.594000001
 10
2342587.694670804
 20
4858210.589241163
 10
2342482.384582779
 20
4858276.875400727
 10
2342482.384582778
 20
4858276.875400728
  0
LWPOLYLINE
  5
12E
330
1F
100
AcDbEntity
  8
ZONE
100
AcDbPolyline
 90
        9
 70
     0
 43
0.0
 10
2342310.916612605
 20
4858100.2179341
 10
2342318.339298268
 20
4858093.551300637
 10
2342324.946385652
 20
4858087.568998976
 10
2342336.396074813
 20
4858077.202026338
 10
2342350.044696829
 20
4858063.320634006
 10
2342363.693318845
 20
4858049.439241672
 10
2342371.042610261
 20
4858041.692128564
 10
2342382.118584696
 20
4858030.334378011
 10
2342384.864844478
 20
4858033.168902365
  0
LWPOLYLINE
  5
12F
330
1F
100
AcDbEntity
  8
ZONE
100
AcDbPolyline
 90
        3
 70
     0
 43
0.0
 10
2342411.246919852
 20
4858024.470904926
 10
2342411.246919851
 20
4858024.470904926
 10
2342404.731303755
 20
4858030.783630524
  0
LWPOLYLINE
  5
130
330
1F
100
AcDbEntity
  8
ZONE
100
AcDbPolyline
 90
        2
 70
     0
 43
0.0
 10
2342404.69397407
 20
4858030.819797796
 10
2342404.693874416
 20
4858030.819894346
  0
LWPOLYLINE
  5
131
330
1F
100
AcDbEntity
  8
ZONE
100
AcDbPolyline
 90
       73
 70
     0
 43
0.0
 10
2342384.864844479
 20
4858033.168902364
 10
2342383.162339145
 20
4858031.411678644
 10
2342382.118584696
 20
4858030.334378011
 10
2342381.333783839
 20
4858031.094740868
 10
2342378.391901676
 20
4858033.945015454
 10
2342363.693318845
 20
4858049.439241672
 10
2342336.396074813
 20
4858077.202026338
 10
2342313.49669649
 20
4858097.935971614
 10
2342284.794064342
 20
4858123.322095765
 10
2342266.688203562
 20
4858139.079283532
 10
2342247.922218918
 20
4858155.093113845
 10
2342237.29191489
 20
4858144.118095247
 10
2342237.801
 20
4858143.625
 10
2342242.18
 20
4858145.383
 10
2342247.000000002
 20
4858142.734000002
 10
2342260.15999999
 20
4858131.504000012
 10
2342278.199000098
 20
4858115.805000012
 10
2342306.828000059
 20
4858090.483999975
 10
2342329.468999987
 20
4858069.983999999
 10
2342356.499999992
 20
4858042.492000016
 10
2342371.282117905
 20
4858026.909716888
 10
2342374.375420857
 20
4858023.912736649
 10
2342379.058999989
 20
4858019.375000014
 10
2342384.68
 20
4858014.543
 10
2342395.269000015
 20
4858005.434000002
 10
2342404.519
 20
4857996.883000002
 10
2342409.199000003
 20
4857992.055000001
 10
2342414.640999999
 20
4857984.934
 10
2342417.737999999
 20
4857979.843999999
 10
2342422.0
 20
4857969.632999998
 10
2342423.550999999
 20
4857962.555000001
 10
2342427.309
 20
4857955.684
 10
2342429.559000021
 20
4857954.68399999
 10
2342436.140999997
 20
4857951.453000002
 10
2342441.039000008
 20
4857949.593999993
 10
2342445.499999999
 20
4857948.331999999
 10
2342450.481
 20
4857947.823999999
 10
2342455.891000001
 20
4857948.003999999
 10
2342461.730999999
 20
4857948.863
 10
2342467.499999999
 20
4857950.274
 10
2342474.141000001
 20
4857952.613
 10
2342483.699000013
 20
4857956.992000007
 10
2342494.519000012
 20
4857962.555000015
 10
2342506.890999962
 20
4857968.812999985
 10
2342511.329999974
 20
4857971.14849999
 10
2342523.601999977
 20
4857977.284999985
 10
2342531.379
 20
4857981.363
 10
2342540.570000001
 20
4857987.113000003
 10
2342549.551000002
 20
4857991.983999998
 10
2342555.231000006
 20
4857995.473000029
 10
2342565.867874262
 20
4858001.795238153
 10
2342562.0
 20
4858008.023999998
 10
2342548.980999999
 20
4858001.094000003
 10
2342536.320000037
 20
4857993.734000002
 10
2342521.160000007
 20
4857984.676
 10
2342504.42549997
 20
4857975.464999982
 10
2342487.301000004
 20
4857966.484000002
 10
2342472.180000005
 20
4857959.633
 10
2342466.488000007
 20
4857957.965000001
 10
2342460.929999996
 20
4857956.702999998
 10
2342455.839999996
 20
4857956.042999999
 10
2342451.391000001
 20
4857956.004
 10
2342446.589999997
 20
4857956.563
 10
2342442.172000001
 20
4857958.374999998
 10
2342438.788999999
 20
4857960.492000002
 10
2342435.18
 20
4857964.016000006
 10
2342431.801
 20
4857968.132999996
 10
2342428.069999996
 20
4857974.241999999
 10
2342424.839999996
 20
4857980.003999998
 10
2342420.699
 20
4857986.562999988
 10
2342416.101999999
 20
4857993.362999997
 10
2342412.817192829
 20
4857997.349253859
 10
2342417.862207749
 20
4858002.556415158
  0
LWPOLYLINE
  5
132
330
1F
100
AcDbEntity
  8
ZONE
100
AcDbPolyline
 90
        2
 70
     0
 43
0.0
 10
2342411.253474265
 20
4858024.474028399
 10
2342411.246919851
 20
4858024.470904926
  0
LWPOLYLINE
  5
133
330
1F
100
AcDbEntity
  8
ZONE
100
AcDbPolyline
 90
       10
 70
     0
 43
0.0
 10
2342383.1567671
 20
4858032.809446179
 10
2342383.1567671
 20
4858032.809446179
 10
2342382.062674392
 20
4858033.869469815
 10
2342380.169347615
 20
4858035.703840092
 10
2342365.491648553
 20
4858051.176052089
 10
2342338.127843515
 20
4858079.006532927
 10
2342315.16387063
 20
4858099.79896451
 10
2342286.442830418
 20
4858125.201369725
 10
2342268.320254448
 20
4858140.973104406
 10
2342249.782733823
 20
4858156.791976441
  0
LWPOLYLINE
  5
134
330
1F
100
AcDbEntity
  8
ZONE
100
AcDbPolyline
 90
        8
 70
     0
 43
0.0
 10
2342436.441957978
 20
4857966.419008697
 10
2342433.843861142
 20
4857969.584550173
 10
2342430.227899786
 20
4857975.505190191
 10
2342426.988805015
 20
4857981.283414363
 10
2342422.792051223
 20
4857987.930723734
 10
2342418.106738097
 20
4857994.861358776
 10
2342416.16761867
 20
4857997.214563059
 10
2342419.482366956
 20
4858000.635847091
  0
LINE
  5
135
330
1F
100
AcDbEntity
  8
ZONE
100
AcDbLine
 10
2342483.699
 20
4857956.992
 30
0.0
 11
2342483.700539998
 21
4857956.988638662
 31
0.0
  0
LINE
  5
136
330
1F
100
AcDbEntity
  8
ZONE
100
AcDbLine
 10
2342515.769999991
 20
4857973.483999997
 30
0.0
 11
2342483.700483103
 21
4857956.988762845
 31
0.0
  0
LINE
  5
137
330
1F
100
AcDbEntity
  8
ZONE
100
AcDbLine
 10
2342483.700483103
 20
4857956.988762845
 30
0.0
 11
2342483.700539997
 21
4857956.988638662
 31
0.0
  0
LINE
  5
138
330
1F
100
AcDbEntity
  8
ZONE
100
AcDbLine
 10
2342454.249938336
 20
4858250.000037426
 30
0.0
 11
2342437.382635462
 21
4858261.121812513
 31
0.0
  0
LWPOLYLINE
  5
139
330
1F
100
AcDbEntity
  8
ZONE
100
AcDbPolyline
 90
       12
 70
     1
 43
0.0
 10
2342794.613386509
 20
4858382.69774577
 10
2342778.065294017
 20
4858391.094760843
 10
2342724.249608167
 20
4858426.646958571
 10
2342681.909468987
 20
4858457.924202618
 10
2342676.108546572
 20
4858463.725125035
 10
2342653.088798831
 20
4858484.511801322
 10
2342643.000274704
 20
4858495.197315209
 42
0.2966247789024137
 10
2342637.700495105
 20
4858496.479736079
 10
2342617.093466432
 20
4858489.206449357
 42
0.4080141459211964
 10
2342614.008438138
 20
4858482.927750558
 10
2342673.491773605
 20
4858302.275884635
 10
2342830.132808654
 20
4858360.28929052
  0
LWPOLYLINE
  5
13A
330
1F
100
AcDbEntity
  8
ZONE
100
AcDbPolyline
 90
        7
 70
     0
 43
0.0
 10
2342552.088000008
 20
4858181.43749999
 10
2342549.75
 20
4858184.285
 10
2342548.715
 20
4858185.059
 10
2342545.719
 20
4858186.715
 10
2342542.106
 20
4858186.609310276
 10
2342539.965
 20
4858185.789
 10
2342478.292626558
 20
4858121.474407982
  0
LINE
  5
13B
330
1F
100
AcDbEntity
  8
ZONE
100
AcDbLine
 10
2342663.539583895
 20
4858298.590002318
 30
0.0
 11
2342659.744851268
 21
4858308.836096945
 31
0.0
  0
LINE
  5
13C
330
1F
100
AcDbEntity
  8
ZONE
100
AcDbLine
 10
2342613.604328549
 20
4858243.644276136
 30
0.0
 11
2342638.86774217
 21
4858283.034127961
 31
0.0
  0
LWPOLYLINE
  5
13D
330
1F
100
AcDbEntity
  8
ZONE
100
AcDbPolyline
 90
       19
 70
     0
 43
0.0
 10
2342383.1567671
 20
4858032.809446179
 10
2342384.28582566
 20
4858033.000150888
 10
2342386.123970619
 20
4858033.535866943
 10
2342389.558879968
 20
4858034.294871095
 10
2342393.119979193
 20
4858034.466904888
 10
2342396.705141827
 20
4858034.073619925
 10
2342400.205403985
 20
4858033.116919828
 10
2342403.784366007
 20
4858031.435375767
 10
2342407.030569447
 20
4858029.201123665
 10
2342409.836548338
 20
4858026.446473655
 10
2342412.119422829
 20
4858023.26857644
 10
2342413.909412192
 20
4858019.745422711
 10
2342415.030322193
 20
4858015.938880586
 10
2342415.5228701
 20
4858012.125785204
 10
2342415.61820158
 20
4858009.160474557
 10
2342416.056907429
 20
4858006.373141384
 10
2342417.013332302
 20
4858003.829728326
 10
2342418.506126598
 20
4858001.590536889
 10
2342419.482366956
 20
4858000.635847091
  0
LWPOLYLINE
  5
13E
330
1F
100
AcDbEntity
  8
ZONE
100
AcDbPolyline
 90
       13
 70
     1
 43
0.0
 10
2342505.936779249
 20
4858314.871054489
 10
2342496.164691741
 20
4858297.675699959
 10
2342489.246539562
 20
4858287.549880741
 10
2342482.384582779
 20
4858276.875400727
 10
2342587.703374723
 20
4858210.583762586
 10
2342590.269000001
 20
4858214.863000001
 10
2342593.840000002
 20
4858219.734000002
 10
2342597.621
 20
4858225.313
 10
2342602.058999999
 20
4858230.452999997
 10
2342606.089999998
 20
4858235.644999999
 10
2342609.929999996
 20
4858239.944999991
 10
2342613.198999999
 20
4858243.093999997
 10
2342613.604328549
 20
4858243.644276136
  0
LINE
  5
13F
330
1F
100
AcDbEntity
  8
ZONE
100
AcDbLine
 10
2342337.446810916
 20
4858125.953784727
 30
0.0
 11
2342365.304692375
 21
4858094.836475843
 31
0.0
  0
LINE
  5
140
330
1F
100
AcDbEntity
  8
ZONE
100
AcDbLine
 10
2342365.304692375
 20
4858094.836475843
 30
0.0
 11
2342394.276474665
 21
4858062.721096801
 31
0.0
  0
LINE
  5
141
330
1F
100
AcDbEntity
  8
ZONE
100
AcDbLine
 10
2342394.276474665
 20
4858062.721096801
 30
0.0
 11
2342423.125311408
 21
4858031.139959196
 31
0.0
  0
LWPOLYLINE
  5
142
330
1F
100
AcDbEntity
  8
ZONE
100
AcDbPolyline
 90
       11
 70
     0
 43
0.0
 10
2342449.539061355
 20
4858047.003907301
 10
2342442.82
 20
4858057.163999999
 10
2342451.716552473
 20
4858063.613749085
 10
2342427.019
 20
4858100.863
 10
2342472.387259298
 20
4858132.0381028
 10
2342481.970999351
 20
4858114.894426623
 10
2342483.9554206
 20
4858111.388949307
 10
2342494.138057536
 20
4858094.142100626
 10
2342483.350918347
 20
4858078.900236011
 10
2342462.561238114
 20
4858057.314964614
 10
2342449.539061355
 20
4858047.003907301
  0
LWPOLYLINE
  5
143
330
1F
100
AcDbEntity
  8
ZONE
100
AcDbPolyline
 90
        8
 70
     1
 43
0.0
 10
2342416.804363545
 20
4858241.896594377
 10
2342393.079781603
 20
4858287.212050707
 10
2342393.079781603
 20
4858287.212050707
 10
2342301.23960156
 20
4858203.817581373
 10
2342282.347607155
 20
4858186.527425718
 10
2342247.922219132
 20
4858155.093114
 10
2342293.126504083
 20
4858115.952446266
 10
2342421.822599568
 20
4858232.311444038
  0
LWPOLYLINE
  5
144
330
1F
100
AcDbEntity
  8
ZONE
100
AcDbPolyline
 90
        8
 70
     0
 43
0.0
 10
2342404.731303755
 20
4858030.783630524
 10
2342406.675262681
 20
4858028.900204752
 10
2342417.089720045
 20
4858037.747187185
 10
2342394.276474637
 20
4858062.721096843
 10
2342365.304692361
 20
4858094.836475916
 10
2342337.446810949
 20
4858125.953784714
 10
2342322.103970238
 20
4858142.152075108
 10
2342303.360725961
 20
4858125.205592574
  0
LWPOLYLINE
  5
145
330
1F
100
AcDbEntity
  8
ZONE
100
AcDbPolyline
 90
        2
 70
     0
 43
0.0
 10
2342404.693874416
 20
4858030.819894346
 10
2342404.69397407
 20
4858030.819797796
  0
LWPOLYLINE
  5
146
330
1F
100
AcDbEntity
  8
ZONE
100
AcDbPolyline
 90
        6
 70
     1
 43
0.0
 10
2342423.125311409
 20
4858031.139959199
 10
2342417.089720046
 20
4858037.747187186
 10
2342406.675262681
 20
4858028.900204751
 10
2342411.246919852
 20
4858024.470904926
 10
2342413.674282212
 20
4858025.627652438
 10
2342421.857781662
 20
4858030.40067328
  0
LWPOLYLINE
  5
147
330
1F
100
AcDbEntity
  8
ZONE
100
AcDbPolyline
 90
      443
 70
     1
 43
0.0
 10
2343166.589999999
 20
4858238.063
 10
2343171.43
 20
4858239.894999999
 10
2343173.269000002
 20
4858240.934000004
 10
2343178.672000087
 20
4858245.074000081
 10
2343180.409999995
 20
4858246.425999996
 10
2343183.460999993
 20
4858249.632999992
 10
2343185.319999995
 20
4858251.284999997
 10
2343190.940999997
 20
4858254.913999996
 10
2343197.371000004
 20
4858258.594000002
 10
2343199.538999994
 20
4858259.433999998
 10
2343206.269000003
 20
4858261.222999999
 10
2343208.268999994
 20
4858262.023999997
 10
2343212.370999988
 20
4858263.003999998
 10
2343219.890999985
 20
4858263.702999998
 10
2343225.550999992
 20
4858263.734000001
 10
2343230.750000004
 20
4858263.253999999
 10
2343236.449000004
 20
4858263.253999999
 10
2343241.828
 20
4858263.152
 10
2343248.289000015
 20
4858262.766000001
 10
2343254.820000036
 20
4858262.702999998
 10
2343260.340000006
 20
4858262.605999999
 10
2343267.26900001
 20
4858262.676000001
 10
2343274.078000017
 20
4858262.953000002
 10
2343281.231000007
 20
4858263.363
 10
2343286.320000003
 20
4858263.434
 10
2343293.891000044
 20
4858263.253999997
 10
2343300.551000001
 20
4858262.992
 10
2343302.800999997
 20
4858262.784999999
 10
2343305.012000001
 20
4858262.273999998
 10
2343309.976999999
 20
4858262.093999999
 10
2343315.680000009
 20
4858262.097999999
 10
2343324.249999998
 20
4858262.382999999
 10
2343330.624999846
 20
4858262.219
 10
2343339.034999999
 20
4858261.956999998
 10
2343345.893999998
 20
4858262.613
 10
2343346.499999997
 20
4858262.773999999
 10
2343353.852000007
 20
4858263.382999997
 10
2343358.840000087
 20
4858263.895000014
 10
2343365.890999999
 20
4858264.664
 10
2343371.320000014
 20
4858264.805
 10
2343373.839999996
 20
4858264.715
 10
2343378.499999996
 20
4858264.965
 10
2343383.699000011
 20
4858264.632999999
 10
2343389.328000024
 20
4858264.702999999
 10
2343394.621000062
 20
4858264.902000001
 10
2343399.769
 20
4858265.043
 10
2343404.930000001
 20
4858265.183999998
 10
2343410.608999986
 20
4858264.901999999
 10
2343417.750000101
 20
4858264.773999999
 10
2343424.750000008
 20
4858264.573999999
 10
2343431.981000085
 20
4858264.073999976
 10
2343434.300999999
 20
4858263.926000001
 10
2343438.819999996
 20
4858262.934000001
 10
2343443.800999999
 20
4858261.112999999
 10
2343448.768999996
 20
4858258.574000001
 10
2343453.987999998
 20
4858256.651999996
 10
2343456.80099999
 20
4858255.863
 10
2343463.680000026
 20
4858254.754000016
 10
2343470.800999976
 20
4858253.542999997
 10
2343476.397999988
 20
4858252.465000004
 10
2343483.031000011
 20
4858250.452999999
 10
2343489.281000032
 20
4858248.073999972
 10
2343495.089999999
 20
4858245.684000001
 10
2343501.891
 20
4858243.632999999
 10
2343508.422000062
 20
4858241.663999985
 10
2343515.218999968
 20
4858239.754000014
 10
2343521.858999994
 20
4858238.202999999
 10
2343528.409999991
 20
4858237.453000001
 10
2343534.089999985
 20
4858237.042999999
 10
2343541.198999951
 20
4858237.074
 10
2343547.890999989
 20
4858236.984
 10
2343553.680000005
 20
4858237.145000003
 10
2343560.461000067
 20
4858237.383000001
 10
2343563.289000003
 20
4858237.464999999
 10
2343569.398000007
 20
4858238.464999997
 10
2343575.289000008
 20
4858239.703000001
 10
2343580.28100003
 20
4858240.414000007
 10
2343585.07
 20
4858241.003999999
 10
2343591.871000011
 20
4858242.723000005
 10
2343598.230999972
 20
4858244.081999984
 10
2343605.461000019
 20
4858245.703000001
 10
2343612.609000025
 20
4858247.754000005
 10
2343619.500000042
 20
4858249.504000037
 10
2343624.410000301
 20
4858250.804999965
 10
2343630.030999982
 20
4858252.304999996
 10
2343636.839999987
 20
4858254.305000003
 10
2343643.339999982
 20
4858256.472999996
 10
2343649.71099999
 20
4858258.843999989
 10
2343656.320000005
 20
4858261.042999999
 10
2343663.210999991
 20
4858262.524
 10
2343668.190999777
 20
4858263.882999988
 10
2343673.089999932
 20
4858265.234000017
 10
2343680.300999997
 20
4858267.164000001
 10
2343685.359000008
 20
4858267.734000001
 10
2343691.129
 20
4858267.804999999
 10
2343697.858999999
 20
4858268.202999998
 10
2343702.858999982
 20
4858268.862999999
 10
2343704.987999997
 20
4858269.323999998
 10
2343712.391000001
 20
4858269.112999998
 10
2343717.481000001
 20
4858269.254000003
 10
2343722.641000006
 20
4858269.863000002
 10
2343726.660000016
 20
4858270.774000005
 10
2343731.879000002
 20
4858272.292999997
 10
2343738.339999988
 20
4858273.612999998
 10
2343744.659999771
 20
4858275.144999943
 10
2343749.262000014
 20
4858276.273999997
 10
2343754.698999992
 20
4858277.343999997
 10
2343760.219000009
 20
4858278.895000002
 10
2343760.469
 20
4858278.98957466
 10
2343760.469
 20
4858328.133000002
 10
2343761.269
 20
4858347.452999999
 10
2343759.129000001
 20
4858356.874999998
 10
2343751.469000001
 20
4858373.233999998
 10
2343749.459530513
 20
4858391.306314106
 10
2343750.040226453
 20
4858409.29066241
 10
2343754.003616639
 20
4858422.79970916
 10
2343736.454645049
 20
4858427.94836421
 10
2343726.038502595
 20
4858429.52551418
 10
2343717.342923552
 20
4858426.884062538
 10
2343706.234436876
 20
4858420.526379956
 10
2343698.923737085
 20
4858414.453373177
 10
2343686.960766289
 20
4858402.686922562
 10
2343678.962066816
 20
4858395.830818452
 10
2343666.33448192
 20
4858386.911082511
 10
2343649.529370052
 20
4858377.896459464
 10
2343634.791869888
 20
4858372.268879266
 10
2343614.568738753
 20
4858364.677620821
 10
2343582.460735462
 20
4858357.463619825
 10
2343566.870020126
 20
4858350.798596591
 10
2343555.151743103
 20
4858346.264179628
 10
2343541.864756258
 20
4858342.159613593
 10
2343523.021430171
 20
4858334.312644851
 10
2343508.76816074
 20
4858329.725189562
 10
2343495.722751331
 20
4858325.620623509
 10
2343483.260901925
 20
4858316.899494783
 10
2343490.045595752
 20
4858306.667172599
 10
2343481.925748999
 20
4858296.814908418
 10
2343460.525175455
 20
4858296.814908419
 10
2343441.400753445
 20
4858297.950832362
 10
2343422.137590031
 20
4858298.493143689
 10
2343397.990836403
 20
4858299.30662516
 10
2343370.98500189
 20
4858300.216426383
 10
2343349.29809228
 20
4858301.023756188
 10
2343326.728073701
 20
4858302.665715777
 10
2343294.913962725
 20
4858302.810239488
 10
2343267.727358142
 20
4858302.665715778
 10
2343240.935606086
 20
4858301.508295668
 10
2343193.214439493
 20
4858302.230928699
 10
2343182.2584038
 20
4858302.396833975
 10
2343158.748104646
 20
4858303.098273623
 10
2343126.50014667
 20
4858303.965444839
 10
2343088.033993174
 20
4858302.231102404
 10
2343055.61268408
 20
4858299.187563911
 10
2343037.135226679
 20
4858291.291291508
 10
2343022.990391256
 20
4858298.04131891
 10
2343010.374747358
 20
4858306.956466106
 10
2342999.039255492
 20
4858314.966963175
 10
2342983.996545231
 20
4858321.857477372
 10
2342970.867527352
 20
4858325.366899236
 10
2342953.748648419
 20
4858319.588868422
 10
2342947.562172243
 20
4858312.726955262
 10
2342900.570155589
 20
4858331.859487551
 10
2342897.317275097
 20
4858334.859717066
 10
2342882.72460505
 20
4858348.318975559
 10
2342857.65254504
 20
4858364.829596854
 10
2342851.590775927
 20
4858367.550212009
 10
2342842.453121794
 20
4858370.201107558
 10
2342833.139586542
 20
4858379.11353193
 10
2342827.936173942
 20
4858381.2464494
 10
2342825.854273061
 20
4858386.687777391
 10
2342808.606059575
 20
4858398.80984168
 10
2342791.019958772
 20
4858410.528124934
 10
2342745.081502239
 20
4858441.396418915
 10
2342732.507676608
 20
4858449.537240139
 10
2342701.909394945
 20
4858468.333752925
 10
2342698.16886412
 20
4858470.55280449
 10
2342691.728771641
 20
4858477.084116386
 10
2342678.338746998
 20
4858494.805934384
 10
2342671.913754106
 20
4858500.444711346
 10
2342667.330700001
 20
4858501.832719784
 10
2342660.018836936
 20
4858501.832719784
 10
2342655.827205461
 20
4858504.829031287
 10
2342647.144784733
 20
4858513.330568324
 10
2342636.358874577
 20
4858540.173849075
 10
2342619.162409413
 20
4858558.628558715
 10
2342615.930829062
 20
4858573.583174931
 10
2342611.068667256
 20
4858569.072153358
 10
2342603.178258301
 20
4858562.939651456
 10
2342584.541936895
 20
4858558.478867902
 10
2342603.875285149
 20
4858493.198279602
 10
2342614.751963223
 20
4858460.165629812
 10
2342626.747652753
 20
4858420.304041922
 10
2342635.404582276
 20
4858392.617830637
 10
2342640.338169023
 20
4858378.390257935
 10
2342645.751194944
 20
4858358.667410247
 10
2342651.812419279
 20
4858339.913405935
 10
2342655.287695103
 20
4858327.787579043
 10
2342658.843533056
 20
4858318.249216237
 10
2342660.680634694
 20
4858311.420949848
 10
2342660.14031706
 20
4858309.306488546
 10
2342654.466943336
 20
4858302.558225089
 10
2342650.014788877
 20
4858297.238709968
 10
2342644.555754983
 20
4858289.748371856
 10
2342638.86774217
 20
4858283.034127961
 10
2342532.75346298
 20
4858354.937373157
 10
2342507.209954384
 20
4858317.111384183
 10
2342496.164691743
 20
4858297.675699963
 10
2342489.246539564
 20
4858287.549880739
 10
2342482.384582779
 20
4858276.875400727
 10
2342474.361090976
 20
4858281.925690475
 10
2342473.185134688
 20
4858288.844941167
 10
2342471.139053419
 20
4858292.658692834
 10
2342416.80436661
 20
4858241.896597242
 10
2342393.079781603
 20
4858287.212050707
 10
2342333.595857156
 20
4858233.430373089
 10
2342301.239601368
 20
4858203.817581197
 10
2342282.347606964
 20
4858186.527425544
 10
2342245.133796747
 20
4858152.468947789
 10
2342285.84401809
 20
4858115.285816332
 10
2342339.981914432
 20
4858065.838369225
 10
2342393.074035988
 20
4858017.3460921
 10
2342394.859750612
 20
4858015.715089865
 10
2342399.618942903
 20
4858011.80388203
 10
2342430.087867603
 20
4857976.923917688
 10
2342421.33314386
 20
4857972.347146653
 10
2342426.712860429
 20
4857966.742903639
 10
2342436.35315483
 20
4857958.637037762
 10
2342420.70308508
 20
4857908.6008609
 10
2342412.940302366
 20
4857883.781804176
 10
2342413.840000002
 20
4857883.573999997
 10
2342415.296999999
 20
4857883.18
 10
2342419.000000007
 20
4857882.741999995
 10
2342427.039000946
 20
4857882.097999987
 10
2342435.051
 20
4857881.438
 10
2342436.679999993
 20
4857881.305000001
 10
2342438.253999998
 20
4857880.981000002
 10
2342440.285
 20
4857880.785
 10
2342440.284894556
 20
4857880.783913207
 10
2342446.935743866
 20
4857880.138623134
 10
2342448.746000002
 20
4857879.702999998
 10
2342450.253999986
 20
4857879.578000002
 10
2342452.640999996
 20
4857879.292999999
 10
2342454.14800001
 20
4857878.894999998
 10
2342455.58599999
 20
4857878.375000004
 10
2342457.046999999
 20
4857877.987999999
 10
2342458.637000015
 20
4857877.649000006
 10
2342460.175999978
 20
4857877.242000002
 10
2342463.113000003
 20
4857876.582000003
 10
2342464.641000031
 20
4857876.343999991
 10
2342472.643999995
 20
4857875.300999999
 10
2342474.147999521
 20
4857875.176000052
 10
2342482.288999997
 20
4857874.488000005
 10
2342490.429999998
 20
4857873.539
 10
2342491.961000015
 20
4857873.206999981
 10
2342499.780999975
 20
4857871.359000006
 10
2342501.453000052
 20
4857870.894999999
 10
2342505.195000011
 20
4857870.003999996
 10
2342507.238
 20
4857869.605999998
 10
2342508.94100028
 20
4857869.437999989
 10
2342517.066000008
 20
4857868.676000001
 10
2342518.659999996
 20
4857868.402000003
 10
2342524.503999992
 20
4857867.625000002
 10
2342532.58599998
 20
4857866.774000003
 10
2342534.586000001
 20
4857866.644999999
 10
2342536.125000004
 20
4857866.757999999
 10
2342537.734000007
 20
4857867.016000007
 10
2342545.734000031
 20
4857868.524000005
 10
2342551.058999982
 20
4857869.730999998
 10
2342556.422000003
 20
4857871.145000003
 10
2342558.023000014
 20
4857871.699000006
 10
2342561.086000009
 20
4857872.883000005
 10
2342562.519000009
 20
4857873.539000003
 10
2342564.233999985
 20
4857874.39899999
 10
2342565.953000001
 20
4857875.344
 10
2342567.198999996
 20
4857876.285000002
 10
2342568.335999998
 20
4857877.284999999
 10
2342569.554999982
 20
4857878.187999993
 10
2342571.034999991
 20
4857879.374999989
 10
2342572.254000057
 20
4857880.434000038
 10
2342578.391
 20
4857885.641000006
 10
2342580.336000009
 20
4857887.414000012
 10
2342583.094
 20
4857889.737999999
 10
2342584.483999972
 20
4857890.519999981
 10
2342585.773000008
 20
4857891.328000011
 10
2342587.214999995
 20
4857892.159999999
 10
2342589.586
 20
4857893.640999998
 10
2342590.801000015
 20
4857894.734000018
 10
2342594.453000004
 20
4857897.792999999
 10
2342595.749999994
 20
4857898.75
 10
2342597.035000026
 20
4857899.574000022
 10
2342603.625
 20
4857904.145
 10
2342610.215000002
 20
4857908.714999999
 10
2342611.504000001
 20
4857909.527000001
 10
2342615.503999998
 20
4857912.663999997
 10
2342616.512000002
 20
4857913.858999999
 10
2342617.644000001
 20
4857914.918
 10
2342618.870999993
 20
4857915.901999982
 10
2342620.137000001
 20
4857916.832
 10
2342621.430000003
 20
4857917.616999983
 10
2342624.32000002
 20
4857919.520000009
 10
2342625.819999994
 20
4857920.589999988
 10
2342626.996000017
 20
4857921.539
 10
2342633.227000006
 20
4857926.848000006
 10
2342637.960999995
 20
4857930.581999992
 10
2342639.266000021
 20
4857931.516000012
 10
2342640.531000001
 20
4857932.348
 10
2342641.738000005
 20
4857933.288999988
 10
2342645.890999993
 20
4857936.753999989
 10
2342650.577999995
 20
4857940.964999992
 10
2342656.808999682
 20
4857946.331999368
 10
2342663.030999997
 20
4857951.680000007
 10
2342669.409999995
 20
4857956.894999992
 10
2342671.218999981
 20
4857958.483999982
 10
2342675.539000005
 20
4857962.563000013
 10
2342676.672
 20
4857963.734000006
 10
2342677.804999989
 20
4857964.819999996
 10
2342683.711000032
 20
4857970.305000093
 10
2342689.737999931
 20
4857975.839999934
 10
2342695.727000006
 20
4857981.258000007
 10
2342696.949000003
 20
4857982.241999997
 10
2342698.137000001
 20
4857983.269999993
 10
2342702.171999992
 20
4857987.035000012
 10
2342708.231000011
 20
4857992.570000011
 10
2342709.480999995
 20
4857993.574000006
 10
2342715.844000017
 20
4857998.488000015
 10
2342722.108999988
 20
4858003.593999987
 10
2342725.094000007
 20
4858005.840000003
 10
2342726.469000012
 20
4858006.688000001
 10
2342727.698999996
 20
4858007.573999995
 10
2342729.050999994
 20
4858008.399000001
 10
2342732.535000001
 20
4858010.715000004
 10
2342737.961000007
 20
4858014.035000003
 10
2342739.320000041
 20
4858014.699000015
 10
2342746.660000031
 20
4858018.106000008
 10
2342748.163999994
 20
4858018.879
 10
2342749.538999987
 20
4858019.874999991
 10
2342751.516
 20
4858021.413999999
 10
2342751.727
 20
4858022.945
 10
2342752.800999999
 20
4858024.034999998
 10
2342754.011999998
 20
4858025.058999991
 10
2342755.284999998
 20
4858025.968999989
 10
2342756.585999997
 20
4858026.805
 10
2342758.797000004
 20
4858028.347999998
 10
2342760.012000006
 20
4858029.347999999
 10
2342761.233999995
 20
4858030.448999992
 10
2342762.754000005
 20
4858031.913999998
 10
2342767.737999997
 20
4858036.348000005
 10
2342769.073999988
 20
4858037.358999988
 10
2342772.640999996
 20
4858040.258000003
 10
2342775.390999991
 20
4858042.340000001
 10
2342777.019000027
 20
4858043.484000025
 10
2342783.441000003
 20
4858048.274000004
 10
2342786.038999996
 20
4858050.058999998
 10
2342787.500000004
 20
4858050.913999996
 10
2342788.77300001
 20
4858051.75000001
 10
2342790.160000005
 20
4858052.843999991
 10
2342795.425999999
 20
4858056.694999993
 10
2342796.702999998
 20
4858057.524000011
 10
2342798.234000012
 20
4858058.594000017
 10
2342800.559
 20
4858060.343999995
 10
2342801.781000008
 20
4858061.399000002
 10
2342806.805
 20
4858065.433999999
 10
2342813.102
 20
4858070.483999999
 10
2342814.164000065
 20
4858071.559000051
 10
2342819.914000002
 20
4858077.27
 10
2342821.238000023
 20
4858078.207000009
 10
2342822.624999994
 20
4858079.109000002
 10
2342829.444999973
 20
4858083.31299999
 10
2342830.999999999
 20
4858084.358999996
 10
2342833.393421278
 20
4858100.19351312
 10
2342852.859190136
 20
4858138.107049803
 10
2342893.971726455
 20
4858145.695607972
 10
2342935.084262774
 20
4858153.284166141
 10
2342946.865847823
 20
4858159.798763606
 10
2342954.214235005
 20
4858162.411621504
 10
2342955.660000007
 20
4858164.445000012
 10
2342956.801
 20
4858166.206999999
 10
2342957.305
 20
4858167.624999999
 10
2342957.999999997
 20
4858169.015999994
 10
2342958.753999996
 20
4858170.382999991
 10
2342960.218999996
 20
4858172.80899998
 10
2342964.413999999
 20
4858179.699000003
 10
2342965.284999989
 20
4858180.925999989
 10
2342966.250000004
 20
4858182.145000007
 10
2342967.358999988
 20
4858183.288999987
 10
2342968.523000005
 20
4858184.375000001
 10
2342969.808999998
 20
4858185.355999999
 10
2342971.754000019
 20
4858186.719000006
 10
2342973.160000005
 20
4858187.594000004
 10
2342974.550999996
 20
4858188.305000001
 10
2342975.995999993
 20
4858188.917999999
 10
2342977.421999989
 20
4858189.448999999
 10
2342982.344
 20
4858191.074000004
 10
2342983.805000017
 20
4858191.453000002
 10
2342985.910000018
 20
4858191.918000003
 10
2342988.643999982
 20
4858192.409999997
 10
2342996.612999997
 20
4858193.57
 10
2342998.340000096
 20
4858193.707000008
 10
2343006.409999999
 20
4858194.457
 10
2343007.952999997
 20
4858194.754
 10
2343009.499999995
 20
4858194.933999997
 10
2343011.320000007
 20
4858195.073999998
 10
2343019.308999998
 20
4858195.949000001
 10
2343020.871000012
 20
4858196.340000001
 10
2343022.409999997
 20
4858196.862999998
 10
2343023.749999999
 20
4858197.730999997
 10
2343024.859000006
 20
4858198.824000006
 10
2343026.210999996
 20
4858200.058999995
 10
2343027.400190475
 20
4858201.388095237
 10
2343028.749999998
 20
4858202.063
 10
2343033.768999995
 20
4858202.944999997
 10
2343038.718999991
 20
4858204.331999997
 10
2343041.288999998
 20
4858204.823999999
 10
2343043.827999998
 20
4858205.824000002
 10
2343046.319999994
 20
4858207.151999994
 10
2343048.891000001
 20
4858208.184
 10
2343054.499999987
 20
4858209.292999997
 10
2343057.000000001
 20
4858209.913999997
 10
2343064.090000005
 20
4858210.863
 10
2343068.659999999
 20
4858212.093999998
 10
2343071.289
 20
4858212.382999999
 10
2343075.859000002
 20
4858213.332
 10
2343078.109000003
 20
4858213.054999999
 10
2343080.051000001
 20
4858212.214999999
 10
2343082.430000001
 20
4858212.132999999
 10
2343084.641
 20
4858212.805
 10
2343088.558999999
 20
4858215.652
 10
2343093.308999986
 20
4858217.792999997
 10
2343098.358999998
 20
4858219.812999999
 10
2343100.711000003
 20
4858221.082000001
 10
2343105.909999995
 20
4858222.063000005
 10
2343108.68
 20
4858222.484
 10
2343115.28900011
 20
4858224.414000023
 10
2343120.230999992
 20
4858225.804999999
 10
2343122.699000011
 20
4858226.805000005
 10
2343126.620999941
 20
4858229.112999977
 10
2343130.409999997
 20
4858230.523999996
 10
2343137.601999997
 20
4858231.164
 10
2343142.210999999
 20
4858231.382999999
 10
2343146.871000005
 20
4858233.555000004
 10
2343149.141000005
 20
4858234.356000003
 10
2343154.268999999
 20
4858235.266000002
 10
2343159.789000047
 20
4858236.473000005
  0
LWPOLYLINE
  5
148
330
1F
100
AcDbEntity
  8
ZONE
100
AcDbPolyline
 90
      259
 70
     0
 43
0.0
 10
2343736.454645046
 20
4858427.948364208
 10
2343726.038502595
 20
4858429.52551418
 10
2343717.342923553
 20
4858426.884062537
 10
2343706.234436874
 20
4858420.526379955
 10
2343698.923737079
 20
4858414.453373171
 10
2343686.960766283
 20
4858402.686922554
 10
2343678.962066817
 20
4858395.830818454
 10
2343666.334481921
 20
4858386.911082512
 10
2343649.529370045
 20
4858377.89645946
 10
2343634.791869869
 20
4858372.268879308
 10
2343614.56873875
 20
4858364.67762082
 10
2343582.460735465
 20
4858357.463619824
 10
2343566.870020152
 20
4858350.798596604
 10
2343555.151743092
 20
4858346.264179624
 10
2343541.864756258
 20
4858342.159613594
 10
2343523.021430164
 20
4858334.312644848
 10
2343508.768160666
 20
4858329.725189562
 10
2343495.722751331
 20
4858325.620623508
 10
2343483.260901925
 20
4858316.899494783
 10
2343490.045595752
 20
4858306.667172599
 10
2343481.925749
 20
4858296.814908418
 10
2343460.52517544
 20
4858296.814908419
 10
2343441.400753439
 20
4858297.950832362
 10
2343422.137589998
 20
4858298.493143689
 10
2343397.990836403
 20
4858299.30662516
 10
2343370.985001877
 20
4858300.21642638
 10
2343349.298092287
 20
4858301.023756189
 10
2343326.728073714
 20
4858302.665715776
 10
2343294.913962751
 20
4858302.810239488
 10
2343267.727358136
 20
4858302.665715778
 10
2343240.93560608
 20
4858301.508295669
 10
2343193.214439493
 20
4858302.230928699
 10
2343182.258403845
 20
4858302.396833972
 10
2343158.748104729
 20
4858303.098273617
 10
2343126.500146683
 20
4858303.965444839
 10
2343088.033993169
 20
4858302.231102402
 10
2343055.61268408
 20
4858299.187563912
 10
2343037.135226679
 20
4858291.291291508
 10
2343022.99039126
 20
4858298.041318908
 10
2343010.374747358
 20
4858306.956466106
 10
2342999.039255495
 20
4858314.966963172
 10
2342983.996545232
 20
4858321.857477373
 10
2342970.867527353
 20
4858325.366899236
 10
2342953.748648419
 20
4858319.588868422
 10
2342947.562172243
 20
4858312.726955262
 10
2342949.486378279
 20
4858311.943525719
 10
2342952.552302198
 20
4858308.432381427
 10
2342953.128999965
 20
4858308.374999999
 10
2342955.749999999
 20
4858308.043
 10
2342957.839999967
 20
4858307.534999999
 10
2342959.922000019
 20
4858307.133000001
 10
2342961.922000065
 20
4858306.823999997
 10
2342964.57000011
 20
4858306.356
 10
2342967.050999996
 20
4858305.883000003
 10
2342969.159999571
 20
4858305.344000062
 10
2342971.129000285
 20
4858304.844000042
 10
2342973.148000025
 20
4858304.323999999
 10
2342975.19900001
 20
4858303.676
 10
2342977.301000003
 20
4858302.855999999
 10
2342979.159999954
 20
4858301.753999958
 10
2342981.422000004
 20
4858300.363000005
 10
2342983.140999998
 20
4858299.113000005
 10
2342984.738000008
 20
4858297.714999997
 10
2342986.172000008
 20
4858296.202999997
 10
2342987.518999321
 20
4858294.554999893
 10
2342988.960999991
 20
4858292.785000009
 10
2342990.128999999
 20
4858290.913999989
 10
2342991.101999999
 20
4858289.133000003
 10
2342991.948999998
 20
4858287.12499999
 10
2342992.801
 20
4858284.894999995
 10
2342993.377785099
 20
4858282.600421166
 10
2342993.41
 20
4858280.574000001
 10
2342992.698999999
 20
4858278.413999997
 10
2342991.590000003
 20
4858276.484000008
 10
2342990.32
 20
4858274.625000001
 10
2342989.250000003
 20
4858272.844000004
 10
2342988.409999998
 20
4858270.823999995
 10
2342987.468999999
 20
4858268.784999999
 10
2342986.352000002
 20
4858267.113000002
 10
2342984.731000004
 20
4858265.695
 10
2342982.718999996
 20
4858264.894999993
 10
2342980.879000011
 20
4858264.043000001
 10
2342978.57
 20
4858263.176000001
 10
2342976.460999995
 20
4858262.015999992
 10
2342974.730999998
 20
4858260.933999999
 10
2342972.551
 20
4858259.804999995
 10
2342970.41
 20
4858259.093999999
 10
2342968.129000021
 20
4858258.652000004
 10
2342965.961000017
 20
4858258.145
 10
2342963.801
 20
4858257.581999999
 10
2342961.288999985
 20
4858256.97299999
 10
2342959.179999941
 20
4858256.356000061
 10
2342956.922000041
 20
4858255.70300001
 10
2342954.488000059
 20
4858254.95300002
 10
2342951.98100002
 20
4858254.124999945
 10
2342949.487999983
 20
4858253.312999996
 10
2342947.199000014
 20
4858252.414000002
 10
2342945.141000002
 20
4858251.503999996
 10
2342942.949000017
 20
4858250.21500001
 10
2342940.789000007
 20
4858249.055000002
 10
2342938.909999971
 20
4858248.37499999
 10
2342936.988000001
 20
4858247.773999999
 10
2342935.059000009
 20
4858246.613000005
 10
2342933.148000001
 20
4858245.194999999
 10
2342930.981000001
 20
4858244.574
 10
2342928.680000054
 20
4858244.093999993
 10
2342926.449000013
 20
4858243.593999998
 10
2342924.141000009
 20
4858242.953000004
 10
2342922.108999995
 20
4858242.241999997
 10
2342920.089999999
 20
4858240.944999998
 10
2342918.641000002
 20
4858239.574
 10
2342916.930000002
 20
4858238.344
 10
2342914.852000002
 20
4858237.753999996
 10
2342912.429999996
 20
4858237.164
 10
2342910.480999999
 20
4858236.543
 10
2342908.699000003
 20
4858235.516000002
 10
2342906.879000012
 20
4858234.183999997
 10
2342904.909999993
 20
4858232.812999997
 10
2342902.800999989
 20
4858231.202999991
 10
2342901.159999999
 20
4858230.035
 10
2342898.680000002
 20
4858228.452999996
 10
2342896.378999997
 20
4858227.331999994
 10
2342894.089999998
 20
4858226.492000004
 10
2342892.000000032
 20
4858225.676000004
 10
2342890.050999995
 20
4858224.992
 10
2342887.819999961
 20
4858223.863000002
 10
2342885.569999994
 20
4858222.793
 10
2342883.480999999
 20
4858221.523999997
 10
2342881.410000007
 20
4858220.843999999
 10
2342878.909999766
 20
4858220.292999939
 10
2342876.339999986
 20
4858219.741999997
 10
2342873.730999995
 20
4858219.253999997
 10
2342871.180000009
 20
4858218.613
 10
2342868.879000672
 20
4858217.91400016
 10
2342866.269000003
 20
4858217.113000004
 10
2342864.159999995
 20
4858216.324000006
 10
2342862.090000015
 20
4858215.465000013
 10
2342860.261999996
 20
4858214.612999999
 10
2342858.359000008
 20
4858213.363000007
 10
2342856.421999996
 20
4858211.972999997
 10
2342854.680000002
 20
4858210.324
 10
2342853.211
 20
4858208.555000001
 10
2342851.691000001
 20
4858207.003999999
 10
2342850.129000005
 20
4858205.645000007
 10
2342848.518999999
 20
4858204.073999997
 10
2342846.300999991
 20
4858202.523999991
 10
2342844.077999989
 20
4858201.132999998
 10
2342842.269000005
 20
4858200.145000006
 10
2342840.378999988
 20
4858199.233999996
 10
2342838.397999986
 20
4858198.464999989
 10
2342836.340000002
 20
4858197.733999999
 10
2342834.480999982
 20
4858196.952999989
 10
2342832.481000005
 20
4858196.223000006
 10
2342830.590000003
 20
4858195.484000002
 10
2342828.629000361
 20
4858194.523999932
 10
2342826.449000012
 20
4858193.453000003
 10
2342824.159999993
 20
4858192.605999995
 10
2342821.879000004
 20
4858191.933999998
 10
2342819.809000038
 20
4858191.843999998
 10
2342817.602000007
 20
4858191.804999998
 10
2342815.289
 20
4858192.202999999
 10
2342813.300999998
 20
4858193.074000006
 10
2342811.460999991
 20
4858194.144999999
 10
2342809.551000008
 20
4858195.362999998
 10
2342807.609000002
 20
4858196.074
 10
2342805.140999999
 20
4858196.112999999
 10
2342803.148000003
 20
4858195.543000001
 10
2342801.129000023
 20
4858195.293
 10
2342798.890999996
 20
4858195.202999999
 10
2342796.75
 20
4858195.434
 10
2342794.559000005
 20
4858196.293000001
 10
2342792.539000015
 20
4858196.683999999
 10
2342783.658909714
 20
4858193.038362552
 10
2342786.389708223
 20
4858191.78524025
 10
2342796.735735407
 20
4858190.524232949
 10
2342804.044449622
 20
4858189.633423188
 10
2342812.690113651
 20
4858189.27710797
 10
2342816.441570619
 20
4858189.38028956
 10
2342817.848401447
 20
4858186.406146765
 10
2342817.602650027
 20
4858182.503688329
 10
2342823.736165236
 20
4858182.254752382
 10
2342832.882799381
 20
4858184.925299843
 10
2342832.163389105
 20
4858177.632657129
 10
2342815.113390382
 20
4858121.792757006
 10
2342832.995999993
 20
4858137.558999994
 10
2342843.844000003
 20
4858144.969000004
 10
2342850.382517581
 20
4858148.703888251
 10
2342857.801051589
 20
4858151.807681925
 10
2342869.117126784
 20
4858155.417113496
 10
2342876.530780544
 20
4858159.209845336
 10
2342887.60212287
 20
4858163.018441563
 10
2342898.876633744
 20
4858167.375469988
 10
2342910.004203143
 20
4858171.814001401
 10
2342917.360398726
 20
4858175.346489626
 10
2342948.100101719
 20
4858193.04785312
 10
2342977.573437032
 20
4858204.609615929
 10
2342996.359760342
 20
4858211.990661551
 10
2343033.465115032
 20
4858230.939283949
 10
2343051.754000004
 20
4858242.445000002
 10
2343055.339999998
 20
4858247.300999999
 10
2343059.147033945
 20
4858256.321865091
 10
2343047.409999997
 20
4858258.823999999
 10
2343033.898000003
 20
4858264.362999997
 10
2343028.891
 20
4858268.554999999
 10
2343034.319999999
 20
4858271.492
 10
2343044.809000004
 20
4858267.804999999
 10
2343050.108999991
 20
4858267.202999996
 10
2343059.640999999
 20
4858267.734
 10
2343062.878999997
 20
4858267.363000001
 10
2343083.011999952
 20
4858260.68399999
 10
2343088.680000004
 20
4858258.944999996
 10
2343105.806976923
 20
4858257.589137834
 10
2343118.795647797
 20
4858257.498789536
 10
2343126.584343145
 20
4858258.172846046
 10
2343133.916497647
 20
4858261.372619686
 10
2343148.761188258
 20
4858267.33710548
 10
2343156.151853478
 20
4858270.395504076
 10
2343161.834479995
 20
4858272.321057553
 10
2343169.981000002
 20
4858273.625000001
 10
2343183.660000015
 20
4858272.293
 10
2343212.128729876
 20
4858270.466145858
 10
2343240.105567506
 20
4858271.564995162
 10
2343270.074127048
 20
4858272.886846211
 10
2343309.961000009
 20
4858273.324
 10
2343337.608999996
 20
4858271.934
 10
2343373.480999983
 20
4858272.573999999
 10
2343402.016732404
 20
4858272.170843372
 10
2343434.002230332
 20
4858271.219702245
 10
2343463.904747416
 20
4858268.8194195
 10
2343489.663438561
 20
4858265.302574352
 10
2343497.558308124
 20
4858264.009888957
 10
2343502.220159359
 20
4858268.181510332
 10
2343505.997468398
 20
4858273.394686835
 10
2343511.033880452
 20
4858275.641746613
 10
2343519.609
 20
4858284.414
 10
2343529.629
 20
4858283.914
 10
2343557.090000009
 20
4858282.555
 10
2343583.781000047
 20
4858282.023999997
 10
2343608.51899992
 20
4858281.765999999
 10
2343628.379000001
 20
4858282.035
 10
2343631.694046094
 20
4858276.896309424
 10
2343636.690853781
 20
4858271.474427373
 10
2343647.112759775
 20
4858270.618344187
 10
2343664.2446539
 20
4858273.329285212
 10
2343674.285392161
 20
4858276.051523776
 10
2343689.275815617
 20
4858280.331950739
 10
2343708.549198719
 20
4858284.897749593
 10
2343724.874972626
 20
4858290.359146032
 10
2343737.501336249
 20
4858297.851590978
 10
2343751.214937811
 20
4858307.404780207
 10
2343755.390999998
 20
4858312.862999997
 10
2343760.469
 20
4858328.132999997
 10
2343761.268999999
 20
4858347.452999998
 10
2343759.129000001
 20
4858356.874999999
 10
2343751.469
 20
4858373.234
 10
2343749.459530513
 20
4858391.306314106
 10
2343750.040226453
 20
4858409.29066241
 10
2343754.003616639
 20
4858422.799709161
 10
2343736.454645047
 20
4858427.948364208
  0
LWPOLYLINE
  5
149
330
1F
100
AcDbEntity
  8
ZONE
100
AcDbPolyline
 90
       73
 70
     0
 43
0.0
 10
2343628.222109102
 20
4858282.032874941
 10
2343608.518999884
 20
4858281.765999999
 10
2343583.781000107
 20
4858282.023999996
 10
2343557.089999947
 20
4858282.555000003
 10
2343529.629
 20
4858283.914
 10
2343519.609
 20
4858284.414
 10
2343511.033880452
 20
4858275.641746613
 10
2343505.997468398
 20
4858273.394686835
 10
2343502.220159359
 20
4858268.181510331
 10
2343497.558308123
 20
4858264.009888957
 10
2343489.663438553
 20
4858265.302574359
 10
2343463.904747437
 20
4858268.819419495
 10
2343434.002230339
 20
4858271.219702245
 10
2343402.016732528
 20
4858272.17084337
 10
2343373.480999973
 20
4858272.573999998
 10
2343337.608999994
 20
4858271.933999999
 10
2343309.960999998
 20
4858273.324000001
 10
2343270.074127035
 20
4858272.886846211
 10
2343240.105567357
 20
4858271.564995155
 10
2343212.12872987
 20
4858270.466145858
 10
2343183.659999987
 20
4858272.293
 10
2343169.980999999
 20
4858273.625
 10
2343161.834479996
 20
4858272.321057553
 10
2343156.151853492
 20
4858270.395504081
 10
2343148.761188221
 20
4858267.33710548
 10
2343133.916497705
 20
4858261.372619714
 10
2343126.584343151
 20
4858258.172846046
 10
2343118.795647804
 20
4858257.498789536
 10
2343105.806976917
 20
4858257.589137834
 10
2343088.679999997
 20
4858258.944999997
 10
2343083.011999965
 20
4858260.68399999
 10
2343062.879000002
 20
4858267.363000001
 10
2343059.640999996
 20
4858267.734
 10
2343050.108999989
 20
4858267.202999996
 10
2343044.809000008
 20
4858267.804999999
 10
2343034.319999998
 20
4858271.492
 10
2343028.891
 20
4858268.554999999
 10
2343033.898000002
 20
4858264.362999997
 10
2343047.409999996
 20
4858258.824000001
 10
2343059.147033945
 20
4858256.32186509
 10
2343055.339999998
 20
4858247.300999999
 10
2343051.754000004
 20
4858242.445000002
 10
2343033.465115027
 20
4858230.939283949
 10
2342996.359760342
 20
4858211.99066155
 10
2342977.573437032
 20
4858204.609615929
 10
2342948.100101719
 20
4858193.04785312
 10
2342917.360398728
 20
4858175.346489627
 10
2342910.004203151
 20
4858171.814001406
 10
2342898.876633656
 20
4858167.375469963
 10
2342887.602122873
 20
4858163.018441559
 10
2342876.530780543
 20
4858159.209845333
 10
2342869.117126781
 20
4858155.417113494
 10
2342857.801051592
 20
4858151.807681926
 10
2342850.382517581
 20
4858148.703888253
 10
2342843.844000013
 20
4858144.969000011
 10
2342832.995999994
 20
4858137.558999995
 10
2342815.113390416
 20
4858121.792757036
 10
2342815.113390416
 20
4858121.792757037
 10
2342800.357227464
 20
4858110.350518934
 10
2342746.594290451
 20
4858071.733907179
 10
2342742.312627482
 20
4858068.046503952
 10
2342741.183021735
 20
4858066.962801786
 10
2342725.182114928
 20
4858037.68509304
 10
2342678.921762675
 20
4858017.506245358
 10
2342656.284853862
 20
4858018.463268745
 10
2342653.770447199
 20
4858019.025064976
 10
2342644.67285996
 20
4858015.930919181
 10
2342618.77715105
 20
4858008.438600934
 10
2342594.667213435
 20
4858001.60195198
 10
2342570.106890574
 20
4857994.968795181
 10
2342565.867874261
 20
4858001.795238153
 10
2342555.231000025
 20
4857995.473000025
 10
2342555.093356525
 20
4857995.388450669
  0
LWPOLYLINE
  5
14A
330
1F
100
AcDbEntity
  8
ZONE
100
AcDbPolyline
 90
      329
 70
     0
 43
0.0
 10
2342420.703085081
 20
4857908.600860903
 10
2342420.703085081
 20
4857908.600860903
 10
2342412.940302366
 20
4857883.781804176
 10
2342413.839999978
 20
4857883.574000003
 10
2342415.296999996
 20
4857883.18
 10
2342419.000000044
 20
4857882.741999993
 10
2342427.039000788
 20
4857882.098000026
 10
2342435.051
 20
4857881.438
 10
2342436.679999993
 20
4857881.305000002
 10
2342438.253999989
 20
4857880.981000004
 10
2342440.284999999
 20
4857880.785000001
 10
2342440.284894556
 20
4857880.783913207
 10
2342446.935743864
 20
4857880.138623135
 10
2342448.746
 20
4857879.702999999
 10
2342450.254
 20
4857879.578000001
 10
2342452.640999996
 20
4857879.293
 10
2342454.148000008
 20
4857878.894999996
 10
2342455.58599999
 20
4857878.375000005
 10
2342457.046999973
 20
4857877.988000002
 10
2342458.637000004
 20
4857877.649000011
 10
2342460.175999995
 20
4857877.242000001
 10
2342463.113000002
 20
4857876.582000003
 10
2342464.641000034
 20
4857876.343999991
 10
2342472.643999995
 20
4857875.300999999
 10
2342474.147999361
 20
4857875.176000046
 10
2342482.288999981
 20
4857874.488000005
 10
2342490.430000005
 20
4857873.539
 10
2342491.960999993
 20
4857873.206999984
 10
2342499.780999959
 20
4857871.359000005
 10
2342501.453000046
 20
4857870.895000008
 10
2342505.195000013
 20
4857870.003999992
 10
2342507.238000007
 20
4857869.605999998
 10
2342508.940999926
 20
4857869.437999995
 10
2342517.065999995
 20
4857868.676000002
 10
2342518.659999981
 20
4857868.402000007
 10
2342524.504000011
 20
4857867.624999999
 10
2342532.58599999
 20
4857866.774000003
 10
2342534.585999999
 20
4857866.644999998
 10
2342536.125000005
 20
4857866.757999998
 10
2342537.734000046
 20
4857867.016000013
 10
2342545.734000045
 20
4857868.524000012
 10
2342551.058999966
 20
4857869.73099999
 10
2342556.422000007
 20
4857871.145000004
 10
2342558.023000036
 20
4857871.699000012
 10
2342561.086000003
 20
4857872.883000001
 10
2342562.519000016
 20
4857873.538999996
 10
2342564.233999985
 20
4857874.398999992
 10
2342565.953000004
 20
4857875.344
 10
2342567.198999998
 20
4857876.285000009
 10
2342568.335999991
 20
4857877.284999993
 10
2342569.554999985
 20
4857878.187999991
 10
2342571.034999997
 20
4857879.374999992
 10
2342572.254000085
 20
4857880.434000033
 10
2342578.391000006
 20
4857885.641000017
 10
2342580.33600001
 20
4857887.414000015
 10
2342583.094
 20
4857889.737999999
 10
2342584.483999958
 20
4857890.519999974
 10
2342585.773000011
 20
4857891.328000015
 10
2342587.214999994
 20
4857892.159999998
 10
2342589.586000003
 20
4857893.641000002
 10
2342590.80100002
 20
4857894.73400002
 10
2342594.453000002
 20
4857897.792999996
 10
2342595.750000002
 20
4857898.750000003
 10
2342597.035000016
 20
4857899.574000005
 10
2342603.625
 20
4857904.145
 10
2342610.215000006
 20
4857908.715000007
 10
2342611.503999995
 20
4857909.527000001
 10
2342615.503999998
 20
4857912.663999999
 10
2342616.512000005
 20
4857913.859000001
 10
2342617.644000003
 20
4857914.918000002
 10
2342618.870999995
 20
4857915.901999985
 10
2342620.137000001
 20
4857916.831999999
 10
2342621.430000013
 20
4857917.616999991
 10
2342624.320000016
 20
4857919.52000001
 10
2342625.819999995
 20
4857920.589999988
 10
2342626.996000015
 20
4857921.538999995
 10
2342633.227000004
 20
4857926.848000005
 10
2342637.960999997
 20
4857930.581999993
 10
2342639.266000033
 20
4857931.516000022
 10
2342640.531000005
 20
4857932.348000002
 10
2342641.738000006
 20
4857933.288999984
 10
2342645.890999982
 20
4857936.753999974
 10
2342650.577999997
 20
4857940.964999984
 10
2342656.808999596
 20
4857946.331999587
 10
2342663.03100002
 20
4857951.680000018
 10
2342669.409999998
 20
4857956.894999993
 10
2342671.218999992
 20
4857958.48399999
 10
2342675.538999998
 20
4857962.563000007
 10
2342676.672000006
 20
4857963.734000014
 10
2342677.804999977
 20
4857964.819999985
 10
2342683.711000081
 20
4857970.305000106
 10
2342689.737999962
 20
4857975.84000001
 10
2342695.727000008
 20
4857981.258000007
 10
2342696.948999998
 20
4857982.241999992
 10
2342698.136999999
 20
4857983.269999987
 10
2342702.172000012
 20
4857987.035000026
 10
2342708.231000008
 20
4857992.570000003
 10
2342709.480999996
 20
4857993.574000009
 10
2342715.844000024
 20
4857998.488000017
 10
2342722.108999992
 20
4858003.593999991
 10
2342725.094000008
 20
4858005.840000003
 10
2342726.469000014
 20
4858006.687999998
 10
2342727.698999999
 20
4858007.573999998
 10
2342729.050999997
 20
4858008.398999997
 10
2342732.535000013
 20
4858010.71500001
 10
2342737.961000009
 20
4858014.035000005
 10
2342739.32000005
 20
4858014.699000024
 10
2342746.660000051
 20
4858018.106000016
 10
2342748.163999992
 20
4858018.878999998
 10
2342749.538999983
 20
4858019.874999981
 10
2342751.516
 20
4858021.413999999
 10
2342751.727
 20
4858022.945
 10
2342752.801000001
 20
4858024.035
 10
2342754.012000001
 20
4858025.058999998
 10
2342755.284999995
 20
4858025.968999992
 10
2342756.585999988
 20
4858026.804999997
 10
2342758.797000001
 20
4858028.347999996
 10
2342760.012
 20
4858029.347999993
 10
2342761.233999999
 20
4858030.448999991
 10
2342762.75400001
 20
4858031.914000001
 10
2342767.737999992
 20
4858036.347999998
 10
2342769.07399998
 20
4858037.35899998
 10
2342772.641000008
 20
4858040.258000017
 10
2342775.390999988
 20
4858042.339999998
 10
2342777.01900004
 20
4858043.484000027
 10
2342783.440999997
 20
4858048.273999997
 10
2342786.039
 20
4858050.058999999
 10
2342787.500000006
 20
4858050.913999997
 10
2342788.773000015
 20
4858051.750000013
 10
2342790.16
 20
4858052.843999993
 10
2342795.425999998
 20
4858056.694999993
 10
2342796.703000009
 20
4858057.524000012
 10
2342798.234000031
 20
4858058.594000032
 10
2342800.558999996
 20
4858060.343999989
 10
2342801.781000002
 20
4858061.399000002
 10
2342806.805
 20
4858065.433999999
 10
2342813.102000003
 20
4858070.484000002
 10
2342814.164000055
 20
4858071.55900004
 10
2342815.113390416
 20
4858072.501951061
 10
2342815.113390416
 20
4858072.501951059
 10
2342819.914000001
 20
4858077.269999999
 10
2342821.238000027
 20
4858078.207000007
 10
2342822.624999999
 20
4858079.108999998
 10
2342829.444999965
 20
4858083.312999983
 10
2342831.0
 20
4858084.358999997
 10
2342833.393421279
 20
4858100.193513122
 10
2342852.859190137
 20
4858138.107049803
 10
2342893.971726455
 20
4858145.695607972
 10
2342935.084262775
 20
4858153.284166141
 10
2342946.865847828
 20
4858159.798763606
 10
2342954.214235005
 20
4858162.411621504
 10
2342955.660000008
 20
4858164.44500001
 10
2342956.801000001
 20
4858166.207
 10
2342957.305
 20
4858167.625
 10
2342957.999999995
 20
4858169.015999991
 10
2342958.753999993
 20
4858170.382999984
 10
2342960.219000063
 20
4858172.809000089
 10
2342964.414
 20
4858179.699000003
 10
2342965.284999992
 20
4858180.925999993
 10
2342966.250000004
 20
4858182.145000009
 10
2342967.358999981
 20
4858183.28899998
 10
2342968.523000004
 20
4858184.374999999
 10
2342969.809000006
 20
4858185.356000009
 10
2342971.75400003
 20
4858186.719000014
 10
2342973.160000004
 20
4858187.594000005
 10
2342974.550999993
 20
4858188.304999996
 10
2342975.995999983
 20
4858188.918
 10
2342977.421999988
 20
4858189.449000004
 10
2342982.344000002
 20
4858191.074000007
 10
2342983.805000033
 20
4858191.453000012
 10
2342985.910000022
 20
4858191.918000001
 10
2342988.643999999
 20
4858192.410000001
 10
2342996.613000008
 20
4858193.57
 10
2342998.340000133
 20
4858193.707000013
 10
2343006.41
 20
4858194.457000001
 10
2343007.952999988
 20
4858194.753999999
 10
2343009.499999983
 20
4858194.933999995
 10
2343011.320000004
 20
4858195.073999999
 10
2343019.309000004
 20
4858195.949000002
 10
2343020.871000026
 20
4858196.340000004
 10
2343022.409999996
 20
4858196.862999997
 10
2343023.749999998
 20
4858197.730999996
 10
2343024.859000004
 20
4858198.824000006
 10
2343026.210999995
 20
4858200.058999996
 10
2343027.400190476
 20
4858201.388095237
 10
2343028.749999998
 20
4858202.062999999
 10
2343033.76899999
 20
4858202.944999997
 10
2343038.718999981
 20
4858204.331999997
 10
2343041.288999996
 20
4858204.823999998
 10
2343043.827999999
 20
4858205.824000002
 10
2343046.319999993
 20
4858207.151999994
 10
2343048.891000001
 20
4858208.184
 10
2343054.499999997
 20
4858209.292999997
 10
2343057.000000001
 20
4858209.913999997
 10
2343064.090000002
 20
4858210.863
 10
2343068.659999999
 20
4858212.093999998
 10
2343071.288999996
 20
4858212.382999999
 10
2343075.859000002
 20
4858213.332
 10
2343078.109000002
 20
4858213.054999999
 10
2343080.051000002
 20
4858212.214999998
 10
2343082.430000001
 20
4858212.132999999
 10
2343084.640999999
 20
4858212.805
 10
2343088.558999998
 20
4858215.651999998
 10
2343093.30899998
 20
4858217.79299999
 10
2343098.359
 20
4858219.813000004
 10
2343100.710999999
 20
4858221.082
 10
2343105.909999995
 20
4858222.063000003
 10
2343108.679999998
 20
4858222.484000001
 10
2343115.289000038
 20
4858224.414000012
 10
2343120.230999995
 20
4858225.804999997
 10
2343122.699000014
 20
4858226.805000005
 10
2343126.620999945
 20
4858229.112999981
 10
2343130.409999993
 20
4858230.523999996
 10
2343137.602000003
 20
4858231.164
 10
2343142.210999998
 20
4858231.382999999
 10
2343146.871000006
 20
4858233.555000004
 10
2343149.140999999
 20
4858234.356000001
 10
2343154.269
 20
4858235.266000004
 10
2343159.788999997
 20
4858236.47299998
 10
2343166.589999994
 20
4858238.063
 10
2343171.429999993
 20
4858239.894999997
 10
2343173.269
 20
4858240.934000001
 10
2343178.671999684
 20
4858245.073999744
 10
2343180.409999997
 20
4858246.426
 10
2343183.46100001
 20
4858249.63300001
 10
2343185.320000005
 20
4858251.285000003
 10
2343190.941000004
 20
4858254.914000002
 10
2343197.371000005
 20
4858258.594000002
 10
2343199.539000017
 20
4858259.434000005
 10
2343206.269000002
 20
4858261.223000002
 10
2343208.269
 20
4858262.023999997
 10
2343212.370999992
 20
4858263.003999999
 10
2343219.890999993
 20
4858263.702999998
 10
2343225.55099999
 20
4858263.734000001
 10
2343230.750000009
 20
4858263.253999999
 10
2343236.449000043
 20
4858263.253999999
 10
2343241.828000014
 20
4858263.152
 10
2343248.289000008
 20
4858262.766000001
 10
2343254.820000043
 20
4858262.702999998
 10
2343260.340000022
 20
4858262.605999999
 10
2343267.26900002
 20
4858262.676000002
 10
2343274.077999995
 20
4858262.953000002
 10
2343281.231000001
 20
4858263.363
 10
2343286.320000009
 20
4858263.434
 10
2343293.89100008
 20
4858263.253999997
 10
2343300.551000017
 20
4858262.991999998
 10
2343302.80100002
 20
4858262.784999998
 10
2343305.011999996
 20
4858262.274000002
 10
2343309.976999977
 20
4858262.093999999
 10
2343315.680000011
 20
4858262.097999999
 10
2343324.250000013
 20
4858262.382999999
 10
2343330.625000401
 20
4858262.218999986
 10
2343339.035000008
 20
4858261.956999998
 10
2343345.894
 20
4858262.612999999
 10
2343346.5
 20
4858262.774
 10
2343353.851999982
 20
4858263.382999999
 10
2343358.839998449
 20
4858263.894999828
 10
2343365.891000008
 20
4858264.664
 10
2343371.320000018
 20
4858264.805
 10
2343373.839999984
 20
4858264.715
 10
2343378.5
 20
4858264.965
 10
2343383.699000006
 20
4858264.632999999
 10
2343389.328000001
 20
4858264.702999999
 10
2343394.621000108
 20
4858264.902000002
 10
2343399.769
 20
4858265.043
 10
2343404.930000013
 20
4858265.183999997
 10
2343410.608999986
 20
4858264.902000001
 10
2343417.750000202
 20
4858264.773999996
 10
2343424.750000014
 20
4858264.574
 10
2343431.980998344
 20
4858264.074000105
 10
2343434.301000001
 20
4858263.926
 10
2343438.819999994
 20
4858262.934000001
 10
2343443.800999999
 20
4858261.113
 10
2343448.768999982
 20
4858258.574000006
 10
2343453.987999982
 20
4858256.652000004
 10
2343456.800999991
 20
4858255.863
 10
2343463.680000379
 20
4858254.753999971
 10
2343470.801000501
 20
4858253.542999914
 10
2343476.398000003
 20
4858252.465000002
 10
2343483.031000036
 20
4858250.452999986
 10
2343489.28100032
 20
4858248.073999858
 10
2343495.090000009
 20
4858245.683999999
 10
2343501.891
 20
4858243.632999999
 10
2343508.422000088
 20
4858241.663999979
 10
2343515.218999959
 20
4858239.754000019
 10
2343521.858999988
 20
4858238.202999999
 10
2343528.410000008
 20
4858237.452999999
 10
2343534.089999978
 20
4858237.043
 10
2343541.198999941
 20
4858237.074
 10
2343547.891000003
 20
4858236.984
 10
2343553.680000151
 20
4858237.145000007
 10
2343560.461000394
 20
4858237.383000013
 10
2343563.289000003
 20
4858237.465
 10
2343569.397999897
 20
4858238.464999978
 10
2343575.28900001
 20
4858239.703000002
 10
2343580.281000071
 20
4858240.414000015
 10
2343585.070000007
 20
4858241.003999999
 10
2343591.87100002
 20
4858242.723000014
 10
2343598.230999671
 20
4858244.081999924
 10
2343605.461000016
 20
4858245.703000001
 10
2343612.60900002
 20
4858247.754000003
 10
2343619.499999582
 20
4858249.503999906
 10
2343624.409999721
 20
4858250.804999778
 10
2343630.030999708
 20
4858252.304999912
 10
2343636.839999992
 20
4858254.305000007
 10
2343643.339999988
 20
4858256.472999999
 10
2343649.71100021
 20
4858258.844000064
 10
2343656.319999999
 20
4858261.042999999
 10
2343663.210999982
 20
4858262.523999996
 10
2343668.190993671
 20
4858263.88299832
 10
2343673.089999955
 20
4858265.234000012
 10
2343680.300999995
 20
4858267.163999999
 10
2343685.359000005
 20
4858267.734000001
 10
2343691.129000008
 20
4858267.804999997
 10
2343697.858999967
 20
4858268.202999996
 10
2343702.858999964
 20
4858268.862999994
 10
2343704.987999998
 20
4858269.323999997
 10
2343712.390999972
 20
4858269.113
 10
2343717.481000003
 20
4858269.254000003
 10
2343722.64100001
 20
4858269.863000003
 10
2343726.660000017
 20
4858270.774000007
 10
2343731.879000021
 20
4858272.293000005
 10
2343738.339999958
 20
4858273.612999989
 10
2343744.659999835
 20
4858275.144999923
 10
2343749.262000119
 20
4858276.27400002
 10
2343754.698999996
 20
4858277.343999997
 10
2343760.219000011
 20
4858278.895000004
 10
2343760.469
 20
4858278.98957466
 10
2343760.468999999
 20
4858328.132999996
  0
LWPOLYLINE
  5
14B
330
1F
100
AcDbEntity
  8
ZONE
100
AcDbPolyline
 90
       66
 70
     0
 43
0.0
 10
2342595.004214535
 20
4858011.880249098
 10
2342598.108432473
 20
4858014.554031316
 10
2342605.207629417
 20
4858020.656009018
 10
2342610.898207002
 20
4858025.308205616
 10
2342612.272455287
 20
4858026.605788662
 10
2342613.170408428
 20
4858027.533858502
 10
2342616.039438432
 20
4858030.283873136
 10
2342622.6494297
 20
4858036.422681484
 10
2342629.109722413
 20
4858042.355603363
 10
2342637.26649784
 20
4858049.734699918
 10
2342638.577378517
 20
4858050.790269955
 10
2342641.119632081
 20
4858053.162409898
 10
2342649.641493623
 20
4858060.947275986
 10
2342653.791149143
 20
4858064.280279302
 10
2342659.900039198
 20
4858068.998035979
 10
2342666.603034973
 20
4858074.461004283
 10
2342674.308082489
 20
4858080.258504021
 10
2342676.481740006
 20
4858081.599057895
 10
2342677.884952742
 20
4858082.609827394
 10
2342680.681007411
 20
4858084.315999806
 10
2342684.119648315
 20
4858086.601847204
 10
2342694.622800531
 20
4858093.028398137
 10
2342695.534099
 20
4858093.473653606
 10
2342698.695367857
 20
4858096.146766164
 10
2342703.049196074
 20
4858099.259086412
 10
2342710.58320284
 20
4858105.961691951
 10
2342713.521404427
 20
4858108.185136416
 10
2342717.080534254
 20
4858111.077740107
 10
2342722.3392092
 20
4858115.059035104
 10
2342724.231226223
 20
4858116.388560579
 10
2342731.033681724
 20
4858121.462332277
 10
2342738.184155422
 20
4858126.332388756
 10
2342744.320626756
 20
4858130.819960178
 10
2342745.208502758
 20
4858131.396349532
 10
2342752.962959051
 20
4858137.621374206
 10
2342761.80732989
 20
4858146.405757139
 10
2342770.690047963
 20
4858152.692091605
 10
2342774.471664293
 20
4858155.151369134
 10
2342780.696099123
 20
4858158.988249489
 10
2342782.200079555
 20
4858159.999930218
 10
2342787.313913584
 20
4858163.161858626
 10
2342797.198437652
 20
4858168.899049899
 10
2342805.402521952
 20
4858173.137820566
 10
2342806.244842432
 20
4858173.642116558
 10
2342811.221264905
 20
4858176.297894752
 10
2342817.401669937
 20
4858179.312185096
 10
2342817.602650027
 20
4858182.503688326
 10
2342823.458151639
 20
4858182.266035891
 10
2342823.736165233
 20
4858182.254752381
 10
2342832.882799381
 20
4858184.925299847
 10
2342832.163389105
 20
4858177.63265713
 10
2342815.113390384
 20
4858121.792757013
 10
2342800.357227222
 20
4858110.350518761
 10
2342746.594290451
 20
4858071.733907178
 10
2342742.312627484
 20
4858068.046503957
 10
2342741.183021735
 20
4858066.962801789
 10
2342725.182114928
 20
4858037.68509304
 10
2342678.921762676
 20
4858017.506245358
 10
2342656.284853865
 20
4858018.463268743
 10
2342653.770447203
 20
4858019.025064975
 10
2342644.672859941
 20
4858015.930919175
 10
2342618.777151082
 20
4858008.438600943
 10
2342594.667213201
 20
4858001.601951912
 10
2342570.106890575
 20
4857994.968795181
 10
2342567.917153244
 20
4857998.495112588
 10
2342595.004214842
 20
4858011.880249255
  0
LWPOLYLINE
  5
14C
330
1F
100
AcDbEntity
  8
ZONE
100
AcDbPolyline
 90
      117
 70
     0
 43
0.0
 10
2342857.652545155
 20
4858364.829596777
 10
2342857.652545047
 20
4858364.82959685
 10
2342851.590775927
 20
4858367.550212009
 10
2342842.453121794
 20
4858370.201107558
 10
2342833.139586542
 20
4858379.11353193
 10
2342827.936173942
 20
4858381.2464494
 10
2342825.854273061
 20
4858386.687777391
 10
2342825.854273061
 20
4858386.687777391
 10
2342825.854273061
 20
4858386.687777391
 10
2342825.854273061
 20
4858386.687777391
 10
2342825.854273061
 20
4858386.687777391
 10
2342825.854273061
 20
4858386.687777391
 10
2342825.854273061
 20
4858386.687777391
 10
2342825.854273061
 20
4858386.687777391
 10
2342825.854273061
 20
4858386.687777391
 10
2342825.854273061
 20
4858386.687777391
 10
2342808.606059575
 20
4858398.80984168
 10
2342791.019958772
 20
4858410.528124934
 10
2342745.081502239
 20
4858441.396418915
 10
2342732.507676608
 20
4858449.537240139
 10
2342698.16886412
 20
4858470.55280449
 10
2342691.728771641
 20
4858477.084116386
 10
2342678.338746998
 20
4858494.805934384
 10
2342671.913754106
 20
4858500.444711346
 10
2342667.330700001
 20
4858501.832719784
 10
2342662.410739886
 20
4858501.832719784
 10
2342660.018836936
 20
4858501.832719784
 10
2342655.827205461
 20
4858504.829031287
 10
2342647.144784733
 20
4858513.330568324
 10
2342641.076869222
 20
4858528.432006893
 10
2342636.358874577
 20
4858540.173849075
 10
2342636.358874577
 20
4858540.173849075
 10
2342624.883002564
 20
4858552.48939671
 10
2342619.162409413
 20
4858558.628558715
 10
2342617.846482116
 20
4858564.71820699
 10
2342615.930829062
 20
4858573.583174931
 10
2342615.930829062
 20
4858573.583174931
 10
2342611.068667257
 20
4858569.07215336
 10
2342606.223996649
 20
4858565.30682866
 10
2342607.305042877
 20
4858563.175404183
 10
2342608.374743438
 20
4858561.205464215
 10
2342609.969509669
 20
4858553.825447516
 10
2342616.907814353
 20
4858546.379475503
 10
2342620.395338761
 20
4858540.783923575
 10
2342631.462719
 20
4858524.854945033
 10
2342632.169912212
 20
4858523.777798483
 10
2342638.648536437
 20
4858507.654214434
 10
2342649.383159319
 20
4858497.143229437
 10
2342656.81219311
 20
4858491.832719783
 10
2342659.19089342
 20
4858491.832719783
 10
2342660.460275191
 20
4858490.920726842
 10
2342664.315991767
 20
4858488.554778033
 10
2342670.600481662
 20
4858482.564142217
 10
2342678.565622996
 20
4858474.08996156
 10
2342682.32246319
 20
4858470.167484983
 10
2342686.936285135
 20
4858465.608769578
 10
2342696.187113423
 20
4858457.652193695
 10
2342710.812500837
 20
4858447.647979947
 10
2342724.633866274
 20
4858437.329891241
 10
2342739.048980133
 20
4858427.370821418
 10
2342750.493420629
 20
4858419.963937664
 10
2342764.933713628
 20
4858410.351281398
 10
2342774.511897201
 20
4858403.719875608
 10
2342781.636072416
 20
4858396.716616804
 10
2342794.98397539
 20
4858390.62178259
 10
2342803.576560971
 20
4858388.048171642
 10
2342809.244451966
 20
4858384.736585808
 10
2342816.965257795
 20
4858379.422514963
 10
2342818.269469298
 20
4858378.527605797
 10
2342820.141851209
 20
4858373.633883817
 10
2342827.594252705
 20
4858370.579089095
 10
2342837.311383591
 20
4858361.280450953
 10
2342848.133556766
 20
4858358.140864984
 10
2342852.780200725
 20
4858356.05537975
 10
2342853.610486614
 20
4858355.497119068
 10
2342859.74883809
 20
4858351.040002268
 10
2342864.34992207
 20
4858347.331843031
 10
2342870.362065885
 20
4858342.842775648
 10
2342885.468081687
 20
4858330.743680139
 10
2342887.000000006
 20
4858331.063000001
 10
2342889.109000012
 20
4858330.983999999
 10
2342891.448999996
 20
4858330.664
 10
2342893.930000005
 20
4858330.183999999
 10
2342896.159999994
 20
4858329.874999995
 10
2342898.609000007
 20
4858329.383
 10
2342900.551000043
 20
4858328.612999989
 10
2342902.789000003
 20
4858327.824000004
 10
2342904.891000002
 20
4858327.222999998
 10
2342906.941000011
 20
4858326.343999994
 10
2342908.999999977
 20
4858325.15200001
 10
2342910.870999993
 20
4858324.223000013
 10
2342912.852000839
 20
4858323.113000126
 10
2342914.641000004
 20
4858322.112999993
 10
2342916.589999978
 20
4858320.863000019
 10
2342918.788999986
 20
4858319.582000007
 10
2342920.68
 20
4858318.625000002
 10
2342922.750000003
 20
4858317.774000002
 10
2342924.910000033
 20
4858317.112999992
 10
2342926.910000011
 20
4858316.581999995
 10
2342929.640999991
 20
4858315.965000002
 10
2342932.019000011
 20
4858315.132999996
 10
2342934.012
 20
4858314.202999999
 10
2342936.000000003
 20
4858313.273999996
 10
2342938.129000008
 20
4858312.523999993
 10
2342940.230999932
 20
4858311.645000009
 10
2342942.07000001
 20
4858310.804999998
 10
2342944.429999985
 20
4858309.953000002
 10
2342946.699000018
 20
4858309.394999994
 10
2342949.08999999
 20
4858308.914000003
 10
2342951.129000007
 20
4858308.573999999
 10
2342952.552302198
 20
4858308.432381427
 10
2342949.48637828
 20
4858311.943525719
 10
2342947.562172243
 20
4858312.726955262
 10
2342900.570155588
 20
4858331.859487551
 10
2342897.317275097
 20
4858334.859717066
 10
2342882.724605053
 20
4858348.318975556
 10
2342857.65254504
 20
4858364.829596853
  0
LWPOLYLINE
  5
14D
330
1F
100
AcDbEntity
  8
ZONE
100
AcDbPolyline
 90
      169
 70
     1
 43
0.0
 10
2342885.468081687
 20
4858330.743680139
 10
2342870.362065885
 20
4858342.842775648
 10
2342864.34992207
 20
4858347.331843031
 10
2342859.74883809
 20
4858351.040002268
 10
2342853.610486614
 20
4858355.497119068
 10
2342852.780200725
 20
4858356.05537975
 10
2342848.133556766
 20
4858358.140864984
 10
2342837.311383591
 20
4858361.280450953
 10
2342827.594252705
 20
4858370.579089095
 10
2342820.141851209
 20
4858373.633883817
 10
2342818.269469298
 20
4858378.527605797
 10
2342816.965257795
 20
4858379.422514963
 10
2342809.244451966
 20
4858384.736585808
 10
2342803.576560971
 20
4858388.048171642
 10
2342794.98397539
 20
4858390.62178259
 10
2342781.636072416
 20
4858396.716616804
 10
2342774.511897201
 20
4858403.719875608
 10
2342764.933713628
 20
4858410.351281398
 10
2342750.493420629
 20
4858419.963937664
 10
2342739.048980133
 20
4858427.370821418
 10
2342724.633866274
 20
4858437.329891241
 10
2342710.812500837
 20
4858447.647979947
 10
2342696.187113423
 20
4858457.652193695
 10
2342686.936285135
 20
4858465.608769578
 10
2342682.32246319
 20
4858470.167484983
 10
2342678.565622996
 20
4858474.08996156
 10
2342670.600481662
 20
4858482.564142217
 10
2342664.315991767
 20
4858488.554778033
 10
2342660.460275191
 20
4858490.920726842
 10
2342659.19089342
 20
4858491.832719783
 10
2342656.81219311
 20
4858491.832719783
 10
2342649.383159319
 20
4858497.143229437
 10
2342638.648536437
 20
4858507.654214434
 10
2342632.169912212
 20
4858523.777798483
 10
2342631.462719
 20
4858524.854945033
 10
2342620.395338761
 20
4858540.783923575
 10
2342616.907814353
 20
4858546.379475503
 10
2342609.969509669
 20
4858553.825447516
 10
2342608.374743438
 20
4858561.205464215
 10
2342607.305042877
 20
4858563.175404183
 10
2342606.223996649
 20
4858565.30682866
 10
2342603.178258303
 20
4858562.939651457
 10
2342584.541936895
 20
4858558.478867903
 10
2342603.875285147
 20
4858493.1982796
 10
2342614.751963226
 20
4858460.165629781
 10
2342626.747652731
 20
4858420.304041959
 10
2342635.404582273
 20
4858392.617830637
 10
2342640.338169023
 20
4858378.390257938
 10
2342645.751194947
 20
4858358.667410244
 10
2342651.812419271
 20
4858339.913405956
 10
2342655.2876951
 20
4858327.787579042
 10
2342658.843533056
 20
4858318.249216237
 10
2342660.680634694
 20
4858311.420949848
 10
2342660.140317059
 20
4858309.306488546
 10
2342659.744851268
 20
4858308.836096946
 10
2342663.539583892
 20
4858298.590002315
 10
2342673.491773605
 20
4858302.275884635
 10
2342614.008438138
 20
4858482.927750558
 42
-0.4080141459211964
 10
2342617.093466432
 20
4858489.206449357
 10
2342637.700495105
 20
4858496.479736079
 42
-0.2966247789024137
 10
2342643.000274704
 20
4858495.197315209
 10
2342653.088798805
 20
4858484.51180135
 10
2342676.10854672
 20
4858463.725124885
 10
2342681.909468982
 20
4858457.924202626
 10
2342724.249608048
 20
4858426.646958642
 10
2342778.065293967
 20
4858391.094760865
 10
2342794.613386514
 20
4858382.697745766
 10
2342830.132808654
 20
4858360.28929052
 10
2342873.963791773
 20
4858332.637246526
 10
2342853.503454684
 20
4858319.452911612
 10
2342848.788945622
 20
4858316.644593362
 10
2342844.002476946
 20
4858313.853752799
 10
2342839.715338802
 20
4858311.157821971
 10
2342835.286512529
 20
4858308.473225286
 10
2342829.316502614
 20
4858304.362476103
 10
2342827.371670853
 20
4858303.314090261
 10
2342825.623651436
 20
4858302.08471397
 10
2342822.400864243
 20
4858299.154907419
 10
2342817.80043403
 20
4858294.358607353
 10
2342814.782091507
 20
4858290.706907686
 10
2342812.110668527
 20
4858286.040558898
 10
2342809.703769945
 20
4858280.193093718
 10
2342808.367208174
 20
4858276.037693009
 10
2342806.765675526
 20
4858270.882283133
 10
2342804.476185948
 20
4858264.165436183
 10
2342803.482597115
 20
4858260.095252498
 10
2342801.392438979
 20
4858252.675950256
 10
2342800.031961393
 20
4858245.725239561
 10
2342798.409715853
 20
4858241.672200704
 10
2342796.906142761
 20
4858237.105416024
 10
2342794.792324137
 20
4858232.370252984
 10
2342790.76171663
 20
4858226.804175974
 10
2342786.163211982
 20
4858221.49741946
 10
2342781.573961281
 20
4858216.862071367
 10
2342774.505480229
 20
4858210.407634144
 10
2342776.693331056
 20
4858201.862585267
 10
2342780.928111202
 20
4858194.291484852
 10
2342783.658909713
 20
4858193.038362552
 10
2342792.539000015
 20
4858196.683999999
 10
2342790.327999998
 20
4858196.804999998
 10
2342788.180000001
 20
4858197.151999998
 10
2342786.698999999
 20
4858198.663999997
 10
2342786.129000001
 20
4858200.612999997
 10
2342785.879
 20
4858202.734
 10
2342786.730999999
 20
4858204.644999997
 10
2342788.070000019
 20
4858206.953000031
 10
2342789.050999994
 20
4858208.702999987
 10
2342790.468999956
 20
4858211.054999897
 10
2342791.602000028
 20
4858212.945000063
 10
2342792.640999999
 20
4858214.694999997
 10
2342794.08999999
 20
4858216.831999978
 10
2342795.358999993
 20
4858218.644999984
 10
2342796.711000012
 20
4858220.703000021
 10
2342798.000000001
 20
4858222.844000001
 10
2342798.870999993
 20
4858224.823999985
 10
2342799.660000001
 20
4858226.676000002
 10
2342800.828000007
 20
4858228.934000012
 10
2342801.731000001
 20
4858230.895000001
 10
2342802.640999995
 20
4858233.183999987
 10
2342803.391000001
 20
4858235.266000006
 10
2342808.500000001
 20
4858250.895000002
 10
2342809.371000009
 20
4858252.824000021
 10
2342810.512
 20
4858255.222999998
 10
2342811.430000001
 20
4858257.465000002
 10
2342812.078000002
 20
4858259.683999991
 10
2342812.800999997
 20
4858262.233999993
 10
2342813.481000002
 20
4858264.145000005
 10
2342814.358999994
 20
4858266.023999985
 10
2342815.198999999
 20
4858267.925999997
 10
2342815.999999996
 20
4858270.163999989
 10
2342817.038999999
 20
4858272.733999999
 10
2342818.461000001
 20
4858275.363000001
 10
2342820.089999989
 20
4858277.722999984
 10
2342821.480999984
 20
4858279.804999961
 10
2342822.569999998
 20
4858281.503999995
 10
2342824.051000003
 20
4858283.613000031
 10
2342825.340000005
 20
4858285.453000007
 10
2342826.761999992
 20
4858287.331999989
 10
2342828.108999999
 20
4858289.223000003
 10
2342829.410000016
 20
4858291.113000019
 10
2342830.801000002
 20
4858293.024000002
 10
2342832.340000042
 20
4858294.362999981
 10
2342834.108999989
 20
4858295.882999991
 10
2342835.960999996
 20
4858297.644999995
 10
2342837.820000045
 20
4858299.176000016
 10
2342839.819999999
 20
4858300.785000018
 10
2342841.840000003
 20
4858302.313000002
 10
2342843.690999992
 20
4858303.394999995
 10
2342845.699000012
 20
4858304.414000007
 10
2342847.820000006
 20
4858305.324000004
 10
2342849.769
 20
4858306.344000001
 10
2342851.481000002
 20
4858307.453
 10
2342852.981000003
 20
4858308.823999999
 10
2342854.590000005
 20
4858310.395000003
 10
2342856.069999999
 20
4858311.913999997
 10
2342857.69899998
 20
4858313.284999986
 10
2342859.609000005
 20
4858314.813000003
 10
2342861.891000031
 20
4858316.25400001
 10
2342864.141000005
 20
4858317.715000001
 10
2342866.07
 20
4858319.163999993
 10
2342867.930000009
 20
4858320.414000004
 10
2342870.230999985
 20
4858321.651999992
 10
2342872.359000043
 20
4858322.953000008
 10
2342874.609000001
 20
4858324.362999997
 10
2342876.891000004
 20
4858325.375000003
 10
2342878.910000004
 20
4858326.563000004
 10
2342880.819999994
 20
4858327.926000018
 10
2342882.698999995
 20
4858329.323999996
 10
2342884.750000001
 20
4858330.594000001
  0
LWPOLYLINE
  5
14E
330
1F
100
AcDbEntity
  8
ZONE
100
AcDbPolyline
 90
      328
 70
     0
 43
0.0
 10
2343760.468999999
 20
4858328.132999996
 10
2343760.469
 20
4858278.98957466
 10
2343760.219000011
 20
4858278.895000004
 10
2343754.698999996
 20
4858277.343999997
 10
2343749.262000119
 20
4858276.27400002
 10
2343744.659999835
 20
4858275.144999923
 10
2343738.339999958
 20
4858273.612999989
 10
2343731.879000021
 20
4858272.293000005
 10
2343726.660000017
 20
4858270.774000007
 10
2343722.64100001
 20
4858269.863000003
 10
2343717.481000003
 20
4858269.254000003
 10
2343712.390999972
 20
4858269.113
 10
2343704.987999998
 20
4858269.323999997
 10
2343702.858999964
 20
4858268.862999994
 10
2343697.858999967
 20
4858268.202999996
 10
2343691.129000008
 20
4858267.804999997
 10
2343685.359000005
 20
4858267.734000001
 10
2343680.300999995
 20
4858267.163999999
 10
2343673.089999955
 20
4858265.234000012
 10
2343668.190993671
 20
4858263.88299832
 10
2343663.210999982
 20
4858262.523999996
 10
2343656.319999999
 20
4858261.042999999
 10
2343649.71100021
 20
4858258.844000064
 10
2343643.339999988
 20
4858256.472999999
 10
2343636.839999992
 20
4858254.305000007
 10
2343630.030999708
 20
4858252.304999912
 10
2343624.409999721
 20
4858250.804999778
 10
2343619.499999582
 20
4858249.503999906
 10
2343612.60900002
 20
4858247.754000003
 10
2343605.461000016
 20
4858245.703000001
 10
2343598.230999671
 20
4858244.081999924
 10
2343591.87100002
 20
4858242.723000014
 10
2343585.070000007
 20
4858241.003999999
 10
2343580.281000071
 20
4858240.414000015
 10
2343575.28900001
 20
4858239.703000002
 10
2343569.397999897
 20
4858238.464999978
 10
2343563.289000003
 20
4858237.465
 10
2343560.461000394
 20
4858237.383000013
 10
2343553.680000151
 20
4858237.145000007
 10
2343547.891000003
 20
4858236.984
 10
2343541.198999941
 20
4858237.074
 10
2343534.089999978
 20
4858237.043
 10
2343528.410000008
 20
4858237.452999999
 10
2343521.858999988
 20
4858238.202999999
 10
2343515.218999959
 20
4858239.754000019
 10
2343508.422000088
 20
4858241.663999979
 10
2343501.891
 20
4858243.632999999
 10
2343495.090000009
 20
4858245.683999999
 10
2343489.28100032
 20
4858248.073999858
 10
2343483.031000036
 20
4858250.452999986
 10
2343476.398000003
 20
4858252.465000002
 10
2343470.801000501
 20
4858253.542999914
 10
2343463.680000379
 20
4858254.753999971
 10
2343456.800999991
 20
4858255.863
 10
2343453.987999982
 20
4858256.652000004
 10
2343448.768999982
 20
4858258.574000006
 10
2343443.800999999
 20
4858261.113
 10
2343438.819999994
 20
4858262.934000001
 10
2343434.301000001
 20
4858263.926
 10
2343431.980998344
 20
4858264.074000105
 10
2343424.750000014
 20
4858264.574
 10
2343417.750000202
 20
4858264.773999996
 10
2343410.608999986
 20
4858264.902000001
 10
2343404.930000013
 20
4858265.183999997
 10
2343399.769
 20
4858265.043
 10
2343394.621000108
 20
4858264.902000002
 10
2343389.328000001
 20
4858264.702999999
 10
2343383.699000006
 20
4858264.632999999
 10
2343378.5
 20
4858264.965
 10
2343373.839999984
 20
4858264.715
 10
2343371.320000018
 20
4858264.805
 10
2343365.891000008
 20
4858264.664
 10
2343358.839998449
 20
4858263.894999828
 10
2343353.851999982
 20
4858263.382999999
 10
2343346.5
 20
4858262.774
 10
2343345.894
 20
4858262.612999999
 10
2343339.035000008
 20
4858261.956999998
 10
2343330.625000401
 20
4858262.218999986
 10
2343324.250000013
 20
4858262.382999999
 10
2343315.680000011
 20
4858262.097999999
 10
2343309.976999977
 20
4858262.093999999
 10
2343305.011999996
 20
4858262.274000002
 10
2343302.80100002
 20
4858262.784999998
 10
2343300.551000017
 20
4858262.991999998
 10
2343293.89100008
 20
4858263.253999997
 10
2343286.320000009
 20
4858263.434
 10
2343281.231000001
 20
4858263.363
 10
2343274.077999995
 20
4858262.953000002
 10
2343267.26900002
 20
4858262.676000002
 10
2343260.340000022
 20
4858262.605999999
 10
2343254.820000043
 20
4858262.702999998
 10
2343248.289000008
 20
4858262.766000001
 10
2343241.828000014
 20
4858263.152
 10
2343236.449000043
 20
4858263.253999999
 10
2343230.750000009
 20
4858263.253999999
 10
2343225.55099999
 20
4858263.734000001
 10
2343219.890999993
 20
4858263.702999998
 10
2343212.370999992
 20
4858263.003999999
 10
2343208.269
 20
4858262.023999997
 10
2343206.269000002
 20
4858261.223000002
 10
2343199.539000017
 20
4858259.434000005
 10
2343197.371000005
 20
4858258.594000002
 10
2343190.941000004
 20
4858254.914000002
 10
2343185.320000005
 20
4858251.285000003
 10
2343183.46100001
 20
4858249.63300001
 10
2343180.409999997
 20
4858246.426
 10
2343178.671999684
 20
4858245.073999744
 10
2343173.269
 20
4858240.934000001
 10
2343171.429999993
 20
4858239.894999997
 10
2343166.589999994
 20
4858238.063
 10
2343159.788999997
 20
4858236.47299998
 10
2343154.269
 20
4858235.266000004
 10
2343149.140999999
 20
4858234.356000001
 10
2343146.871000006
 20
4858233.555000004
 10
2343142.210999998
 20
4858231.382999999
 10
2343137.602000003
 20
4858231.164
 10
2343130.409999993
 20
4858230.523999996
 10
2343126.620999945
 20
4858229.112999981
 10
2343122.699000014
 20
4858226.805000005
 10
2343120.230999995
 20
4858225.804999997
 10
2343115.289000038
 20
4858224.414000012
 10
2343108.679999998
 20
4858222.484000001
 10
2343105.909999995
 20
4858222.063000003
 10
2343100.710999999
 20
4858221.082
 10
2343098.359
 20
4858219.813000004
 10
2343093.30899998
 20
4858217.79299999
 10
2343088.558999998
 20
4858215.651999998
 10
2343084.640999999
 20
4858212.805
 10
2343082.430000001
 20
4858212.132999999
 10
2343080.051000002
 20
4858212.214999998
 10
2343078.109000002
 20
4858213.054999999
 10
2343075.859000002
 20
4858213.332
 10
2343071.288999996
 20
4858212.382999999
 10
2343068.659999999
 20
4858212.093999998
 10
2343064.090000002
 20
4858210.863
 10
2343057.000000001
 20
4858209.913999997
 10
2343054.499999997
 20
4858209.292999997
 10
2343048.891000001
 20
4858208.184
 10
2343046.319999993
 20
4858207.151999994
 10
2343043.827999999
 20
4858205.824000002
 10
2343041.288999996
 20
4858204.823999998
 10
2343038.718999981
 20
4858204.331999997
 10
2343033.76899999
 20
4858202.944999997
 10
2343028.749999998
 20
4858202.062999999
 10
2343027.400190476
 20
4858201.388095237
 10
2343026.210999995
 20
4858200.058999996
 10
2343024.859000004
 20
4858198.824000006
 10
2343023.749999998
 20
4858197.730999996
 10
2343022.409999996
 20
4858196.862999997
 10
2343020.871000026
 20
4858196.340000004
 10
2343019.309000004
 20
4858195.949000002
 10
2343011.320000004
 20
4858195.073999999
 10
2343009.499999983
 20
4858194.933999995
 10
2343007.952999988
 20
4858194.753999999
 10
2343006.41
 20
4858194.457000001
 10
2342998.340000133
 20
4858193.707000013
 10
2342996.613000008
 20
4858193.57
 10
2342988.643999999
 20
4858192.410000001
 10
2342985.910000022
 20
4858191.918000001
 10
2342983.805000033
 20
4858191.453000012
 10
2342982.344000002
 20
4858191.074000007
 10
2342977.421999988
 20
4858189.449000004
 10
2342975.995999983
 20
4858188.918
 10
2342974.550999993
 20
4858188.304999996
 10
2342973.160000004
 20
4858187.594000005
 10
2342971.75400003
 20
4858186.719000014
 10
2342969.809000006
 20
4858185.356000009
 10
2342968.523000004
 20
4858184.374999999
 10
2342967.358999981
 20
4858183.28899998
 10
2342966.250000004
 20
4858182.145000009
 10
2342965.284999992
 20
4858180.925999993
 10
2342964.414
 20
4858179.699000003
 10
2342960.219000063
 20
4858172.809000089
 10
2342958.753999993
 20
4858170.382999984
 10
2342957.999999995
 20
4858169.015999991
 10
2342957.305
 20
4858167.625
 10
2342956.801000001
 20
4858166.207
 10
2342955.660000008
 20
4858164.44500001
 10
2342954.214235005
 20
4858162.411621504
 10
2342946.865847828
 20
4858159.798763606
 10
2342935.084262775
 20
4858153.284166141
 10
2342893.971726455
 20
4858145.695607972
 10
2342852.859190137
 20
4858138.107049803
 10
2342833.393421279
 20
4858100.193513122
 10
2342831.0
 20
4858084.358999997
 10
2342829.444999965
 20
4858083.312999983
 10
2342822.624999999
 20
4858079.108999998
 10
2342821.238000027
 20
4858078.207000007
 10
2342819.914000001
 20
4858077.269999999
 10
2342815.113390416
 20
4858072.501951059
 10
2342815.113390416
 20
4858072.501951061
 10
2342814.164000055
 20
4858071.55900004
 10
2342813.102000003
 20
4858070.484000002
 10
2342806.805
 20
4858065.433999999
 10
2342801.781000002
 20
4858061.399000002
 10
2342800.558999996
 20
4858060.343999989
 10
2342798.234000031
 20
4858058.594000032
 10
2342796.703000009
 20
4858057.524000012
 10
2342795.425999998
 20
4858056.694999993
 10
2342790.16
 20
4858052.843999993
 10
2342788.773000015
 20
4858051.750000013
 10
2342787.500000006
 20
4858050.913999997
 10
2342786.039
 20
4858050.058999999
 10
2342783.440999997
 20
4858048.273999997
 10
2342777.01900004
 20
4858043.484000027
 10
2342775.390999988
 20
4858042.339999998
 10
2342772.641000008
 20
4858040.258000017
 10
2342769.07399998
 20
4858037.35899998
 10
2342767.737999992
 20
4858036.347999998
 10
2342762.75400001
 20
4858031.914000001
 10
2342761.233999999
 20
4858030.448999991
 10
2342760.012
 20
4858029.347999993
 10
2342758.797000001
 20
4858028.347999996
 10
2342756.585999988
 20
4858026.804999997
 10
2342755.284999995
 20
4858025.968999992
 10
2342754.012000001
 20
4858025.058999998
 10
2342752.801000001
 20
4858024.035
 10
2342751.727
 20
4858022.945
 10
2342751.516
 20
4858021.413999999
 10
2342749.538999983
 20
4858019.874999981
 10
2342748.163999992
 20
4858018.878999998
 10
2342746.660000051
 20
4858018.106000016
 10
2342739.32000005
 20
4858014.699000024
 10
2342737.961000009
 20
4858014.035000005
 10
2342732.535000013
 20
4858010.71500001
 10
2342729.050999997
 20
4858008.398999997
 10
2342727.698999999
 20
4858007.573999998
 10
2342726.469000014
 20
4858006.687999998
 10
2342725.094000008
 20
4858005.840000003
 10
2342722.108999992
 20
4858003.593999991
 10
2342715.844000024
 20
4857998.488000017
 10
2342709.480999996
 20
4857993.574000009
 10
2342708.231000008
 20
4857992.570000003
 10
2342702.172000012
 20
4857987.035000026
 10
2342698.136999999
 20
4857983.269999987
 10
2342696.948999998
 20
4857982.241999992
 10
2342695.727000008
 20
4857981.258000007
 10
2342689.737999962
 20
4857975.84000001
 10
2342683.711000081
 20
4857970.305000106
 10
2342677.804999977
 20
4857964.819999985
 10
2342676.672000006
 20
4857963.734000014
 10
2342675.538999998
 20
4857962.563000007
 10
2342671.218999992
 20
4857958.48399999
 10
2342669.409999998
 20
4857956.894999993
 10
2342663.03100002
 20
4857951.680000018
 10
2342656.808999596
 20
4857946.331999587
 10
2342650.577999997
 20
4857940.964999984
 10
2342645.890999982
 20
4857936.753999974
 10
2342641.738000006
 20
4857933.288999984
 10
2342640.531000005
 20
4857932.348000002
 10
2342639.266000033
 20
4857931.516000022
 10
2342637.960999997
 20
4857930.581999993
 10
2342633.227000004
 20
4857926.848000005
 10
2342626.996000015
 20
4857921.538999995
 10
2342625.819999995
 20
4857920.589999988
 10
2342624.320000016
 20
4857919.52000001
 10
2342621.430000013
 20
4857917.616999991
 10
2342620.137000001
 20
4857916.831999999
 10
2342618.870999995
 20
4857915.901999985
 10
2342617.644000003
 20
4857914.918000002
 10
2342616.512000005
 20
4857913.859000001
 10
2342615.503999998
 20
4857912.663999999
 10
2342611.503999995
 20
4857909.527000001
 10
2342610.215000006
 20
4857908.715000007
 10
2342603.625
 20
4857904.145
 10
2342597.035000016
 20
4857899.574000005
 10
2342595.750000002
 20
4857898.750000003
 10
2342594.453000002
 20
4857897.792999996
 10
2342590.80100002
 20
4857894.73400002
 10
2342589.586000003
 20
4857893.641000002
 10
2342587.214999994
 20
4857892.159999998
 10
2342585.773000011
 20
4857891.328000015
 10
2342584.483999958
 20
4857890.519999974
 10
2342583.094
 20
4857889.737999999
 10
2342580.33600001
 20
4857887.414000015
 10
2342578.391000006
 20
4857885.641000017
 10
2342572.254000085
 20
4857880.434000033
 10
2342571.034999997
 20
4857879.374999992
 10
2342569.554999985
 20
4857878.187999991
 10
2342568.335999991
 20
4857877.284999993
 10
2342567.198999998
 20
4857876.285000009
 10
2342565.953000004
 20
4857875.344
 10
2342564.233999985
 20
4857874.398999992
 10
2342562.519000016
 20
4857873.538999996
 10
2342561.086000003
 20
4857872.883000001
 10
2342558.023000036
 20
4857871.699000012
 10
2342556.422000007
 20
4857871.145000004
 10
2342551.058999966
 20
4857869.73099999
 10
2342545.734000045
 20
4857868.524000012
 10
2342537.734000046
 20
4857867.016000013
 10
2342536.125000005
 20
4857866.757999998
 10
2342534.585999999
 20
4857866.644999998
 10
2342532.58599999
 20
4857866.774000003
 10
2342524.504000011
 20
4857867.624999999
 10
2342518.659999981
 20
4857868.402000007
 10
2342517.065999995
 20
4857868.676000002
 10
2342508.940999926
 20
4857869.437999995
 10
2342507.238000007
 20
4857869.605999998
 10
2342505.195000013
 20
4857870.003999992
 10
2342501.453000046
 20
4857870.895000008
 10
2342499.780999959
 20
4857871.359000005
 10
2342491.960999993
 20
4857873.206999984
 10
2342490.430000005
 20
4857873.539
 10
2342482.288999981
 20
4857874.488000005
 10
2342474.147999361
 20
4857875.176000046
 10
2342472.643999995
 20
4857875.300999999
 10
2342464.641000034
 20
4857876.343999991
 10
2342463.113000002
 20
4857876.582000003
 10
2342460.175999995
 20
4857877.242000001
 10
2342458.637000004
 20
4857877.649000011
 10
2342457.046999973
 20
4857877.988000002
 10
2342455.58599999
 20
4857878.375000005
 10
2342454.148000008
 20
4857878.894999996
 10
2342452.640999996
 20
4857879.293
 10
2342450.254
 20
4857879.578000001
 10
2342448.746
 20
4857879.702999999
 10
2342446.935743864
 20
4857880.138623135
 10
2342440.284894556
 20
4857880.783913207
 10
2342440.284999999
 20
4857880.785000001
 10
2342438.253999989
 20
4857880.981000004
 10
2342436.679999993
 20
4857881.305000002
 10
2342435.051
 20
4857881.438
 10
2342427.039000788
 20
4857882.098000026
 10
2342419.000000044
 20
4857882.741999993
 10
2342415.296999996
 20
4857883.18
 10
2342413.839999978
 20
4857883.574000003
 10
2342412.940302366
 20
4857883.781804176
 10
2342420.703085081
 20
4857908.600860903
  0
LWPOLYLINE
  5
14F
330
1F
100
AcDbEntity
  8
ZONE
100
AcDbPolyline
 90
      106
 70
     0
 43
0.0
 10
2342555.093356525
 20
4857995.388450669
 10
2342555.093356322
 20
4857995.388450926
 10
2342555.231000025
 20
4857995.473000025
 10
2342565.867874261
 20
4858001.795238153
 10
2342570.106890574
 20
4857994.968795181
 10
2342594.667213435
 20
4858001.60195198
 10
2342618.77715105
 20
4858008.438600934
 10
2342644.67285996
 20
4858015.930919181
 10
2342653.770447199
 20
4858019.025064976
 10
2342656.284853862
 20
4858018.463268745
 10
2342678.921762675
 20
4858017.506245358
 10
2342725.182114928
 20
4858037.68509304
 10
2342741.183021735
 20
4858066.962801786
 10
2342742.312627482
 20
4858068.046503952
 10
2342746.594290451
 20
4858071.733907179
 10
2342800.357227464
 20
4858110.350518934
 10
2342815.113390416
 20
4858121.792757037
 10
2342815.113390416
 20
4858121.792757036
 10
2342832.995999994
 20
4858137.558999995
 10
2342843.844000013
 20
4858144.969000011
 10
2342850.382517581
 20
4858148.703888253
 10
2342857.801051592
 20
4858151.807681926
 10
2342869.117126781
 20
4858155.417113494
 10
2342876.530780543
 20
4858159.209845333
 10
2342887.602122873
 20
4858163.018441559
 10
2342898.876633656
 20
4858167.375469963
 10
2342910.004203151
 20
4858171.814001406
 10
2342917.360398728
 20
4858175.346489627
 10
2342948.100101719
 20
4858193.04785312
 10
2342977.573437032
 20
4858204.609615929
 10
2342996.359760342
 20
4858211.99066155
 10
2343033.465115027
 20
4858230.939283949
 10
2343051.754000004
 20
4858242.445000002
 10
2343053.811540281
 20
4858245.231228557
 10
2343048.405556772
 20
4858246.032949259
 10
2343040.941856438
 20
4858247.791418548
 10
2343033.415035439
 20
4858250.207740699
 10
2343027.323959383
 20
4858252.832219212
 10
2342987.519088108
 20
4858294.554891265
 10
2342987.519087934
 20
4858294.554891124
 10
2342987.518999321
 20
4858294.554999893
 10
2342986.172000008
 20
4858296.202999997
 10
2342984.738000008
 20
4858297.714999997
 10
2342983.140999998
 20
4858299.113000005
 10
2342981.422000004
 20
4858300.363000005
 10
2342979.159999954
 20
4858301.753999958
 10
2342977.301000003
 20
4858302.855999999
 10
2342975.19900001
 20
4858303.676
 10
2342973.148000025
 20
4858304.323999999
 10
2342971.129000285
 20
4858304.844000042
 10
2342969.159999571
 20
4858305.344000062
 10
2342967.050999996
 20
4858305.883000003
 10
2342964.57000011
 20
4858306.356
 10
2342961.922000065
 20
4858306.823999997
 10
2342959.922000019
 20
4858307.133000001
 10
2342957.839999967
 20
4858307.534999999
 10
2342955.749999999
 20
4858308.043
 10
2342953.128999965
 20
4858308.374999999
 10
2342952.552302259
 20
4858308.432381421
 10
2342949.48637828
 20
4858311.943525719
 10
2342947.562172243
 20
4858312.726955262
 10
2342953.748648419
 20
4858319.588868422
 10
2342970.867527353
 20
4858325.366899236
 10
2342983.996545232
 20
4858321.857477373
 10
2342999.039255495
 20
4858314.966963172
 10
2343022.990391256
 20
4858298.04131891
 10
2343033.07656632
 20
4858287.50996381
 10
2343031.266231773
 20
4858283.585067812
 10
2343030.867391164
 20
4858279.281226979
 10
2343031.925643674
 20
4858275.09049657
 10
2343034.319999998
 20
4858271.492
 10
2343044.809000008
 20
4858267.804999999
 10
2343050.108999989
 20
4858267.202999996
 10
2343059.640999996
 20
4858267.734
 10
2343062.879000002
 20
4858267.363000001
 10
2343083.011999965
 20
4858260.68399999
 10
2343088.679999997
 20
4858258.944999997
 10
2343105.806976917
 20
4858257.589137834
 10
2343118.795647804
 20
4858257.498789536
 10
2343126.584343151
 20
4858258.172846046
 10
2343133.916497705
 20
4858261.372619714
 10
2343148.761188221
 20
4858267.33710548
 10
2343156.151853492
 20
4858270.395504081
 10
2343161.834479996
 20
4858272.321057553
 10
2343169.980999999
 20
4858273.625
 10
2343183.659999987
 20
4858272.293
 10
2343212.12872987
 20
4858270.466145858
 10
2343240.105567357
 20
4858271.564995155
 10
2343270.074127035
 20
4858272.886846211
 10
2343309.960999998
 20
4858273.324000001
 10
2343337.608999994
 20
4858271.933999999
 10
2343373.480999973
 20
4858272.573999998
 10
2343402.016732528
 20
4858272.17084337
 10
2343434.002230339
 20
4858271.219702245
 10
2343463.904747437
 20
4858268.819419495
 10
2343489.663438553
 20
4858265.302574359
 10
2343497.558308123
 20
4858264.009888957
 10
2343502.220159359
 20
4858268.181510331
 10
2343505.997468398
 20
4858273.394686835
 10
2343511.033880452
 20
4858275.641746613
 10
2343519.609
 20
4858284.414
 10
2343529.629
 20
4858283.914
 10
2343557.089999947
 20
4858282.555000003
 10
2343583.781000107
 20
4858282.023999996
 10
2343608.518999884
 20
4858281.765999999
 10
2343628.222109102
 20
4858282.032874941
  0
LWPOLYLINE
  5
150
330
1F
100
AcDbEntity
  8
ZONE
100
AcDbPolyline
 90
      431
 70
     0
 43
0.0
 10
2343628.379
 20
4858282.035
 10
2343608.518999884
 20
4858281.765999999
 10
2343583.781000107
 20
4858282.023999996
 10
2343557.089999947
 20
4858282.555000003
 10
2343529.629
 20
4858283.914
 10
2343519.609
 20
4858284.414
 10
2343511.033880452
 20
4858275.641746613
 10
2343505.997468398
 20
4858273.394686835
 10
2343502.220159359
 20
4858268.181510331
 10
2343497.558308123
 20
4858264.009888957
 10
2343489.663438553
 20
4858265.302574359
 10
2343463.904747437
 20
4858268.819419495
 10
2343434.002230339
 20
4858271.219702245
 10
2343402.016732528
 20
4858272.17084337
 10
2343373.480999973
 20
4858272.573999998
 10
2343337.608999994
 20
4858271.933999999
 10
2343309.960999998
 20
4858273.324000001
 10
2343270.074127035
 20
4858272.886846211
 10
2343240.105567357
 20
4858271.564995155
 10
2343212.12872987
 20
4858270.466145858
 10
2343183.659999987
 20
4858272.293
 10
2343169.980999999
 20
4858273.625
 10
2343161.834479996
 20
4858272.321057553
 10
2343156.151853492
 20
4858270.395504081
 10
2343148.761188221
 20
4858267.33710548
 10
2343133.916497705
 20
4858261.372619714
 10
2343126.584343151
 20
4858258.172846046
 10
2343118.795647804
 20
4858257.498789536
 10
2343105.806976917
 20
4858257.589137834
 10
2343088.679999997
 20
4858258.944999997
 10
2343083.011999965
 20
4858260.68399999
 10
2343062.879000002
 20
4858267.363000001
 10
2343059.640999996
 20
4858267.734
 10
2343050.108999989
 20
4858267.202999996
 10
2343044.809000008
 20
4858267.804999999
 10
2343034.319999998
 20
4858271.492
 10
2343028.891
 20
4858268.554999999
 10
2343033.898000002
 20
4858264.362999997
 10
2343047.409999996
 20
4858258.824000001
 10
2343059.147033945
 20
4858256.32186509
 10
2343055.339999998
 20
4858247.300999999
 10
2343051.754000004
 20
4858242.445000002
 10
2343033.465115027
 20
4858230.939283949
 10
2342996.359760342
 20
4858211.99066155
 10
2342977.573437032
 20
4858204.609615929
 10
2342948.100101719
 20
4858193.04785312
 10
2342917.360398728
 20
4858175.346489627
 10
2342910.004203151
 20
4858171.814001406
 10
2342898.876633656
 20
4858167.375469963
 10
2342887.602122873
 20
4858163.018441559
 10
2342876.530780543
 20
4858159.209845333
 10
2342869.117126781
 20
4858155.417113494
 10
2342857.801051592
 20
4858151.807681926
 10
2342850.382517581
 20
4858148.703888253
 10
2342843.844000013
 20
4858144.969000011
 10
2342832.995999994
 20
4858137.558999995
 10
2342815.113390416
 20
4858121.792757036
 10
2342815.113390416
 20
4858121.792757037
 10
2342800.357227464
 20
4858110.350518934
 10
2342746.594290451
 20
4858071.733907179
 10
2342742.312627482
 20
4858068.046503952
 10
2342741.183021735
 20
4858066.962801786
 10
2342725.182114928
 20
4858037.68509304
 10
2342678.921762675
 20
4858017.506245358
 10
2342656.284853862
 20
4858018.463268745
 10
2342653.770447199
 20
4858019.025064976
 10
2342644.67285996
 20
4858015.930919181
 10
2342618.77715105
 20
4858008.438600934
 10
2342594.667213435
 20
4858001.60195198
 10
2342570.106890574
 20
4857994.968795181
 10
2342565.867874261
 20
4858001.795238153
 10
2342555.230999298
 20
4857995.472999593
 10
2342549.551000008
 20
4857991.983999997
 10
2342540.569999994
 20
4857987.112999997
 10
2342531.378999995
 20
4857981.362999995
 10
2342523.601999966
 20
4857977.284999979
 10
2342511.329999958
 20
4857971.148499984
 10
2342506.890999946
 20
4857968.812999977
 10
2342494.710840062
 20
4857962.652036481
 10
2342483.700483104
 20
4857956.988762844
 10
2342483.699
 20
4857956.992000001
 10
2342474.141000008
 20
4857952.613000001
 10
2342467.500000003
 20
4857950.274000002
 10
2342461.731000009
 20
4857948.863000002
 10
2342455.890999997
 20
4857948.003999998
 10
2342450.481
 20
4857947.823999999
 10
2342445.5
 20
4857948.331999998
 10
2342441.038999998
 20
4857949.593999997
 10
2342436.140999998
 20
4857951.453
 10
2342434.377004253
 20
4857952.318917694
 10
2342420.703085081
 20
4857908.600860903
 10
2342420.703085081
 20
4857908.600860903
 10
2342412.940302366
 20
4857883.781804176
 10
2342413.839999978
 20
4857883.574000003
 10
2342415.296999996
 20
4857883.18
 10
2342419.000000044
 20
4857882.741999993
 10
2342427.039000788
 20
4857882.098000026
 10
2342435.051
 20
4857881.438
 10
2342436.679999993
 20
4857881.305000002
 10
2342438.253999989
 20
4857880.981000004
 10
2342440.284999999
 20
4857880.785000001
 10
2342440.284894556
 20
4857880.783913207
 10
2342446.935743864
 20
4857880.138623135
 10
2342448.746
 20
4857879.702999999
 10
2342450.254
 20
4857879.578000001
 10
2342452.640999996
 20
4857879.293
 10
2342454.148000008
 20
4857878.894999996
 10
2342455.58599999
 20
4857878.375000005
 10
2342457.046999973
 20
4857877.988000002
 10
2342458.637000004
 20
4857877.649000011
 10
2342460.175999995
 20
4857877.242000001
 10
2342463.113000002
 20
4857876.582000003
 10
2342464.641000034
 20
4857876.343999991
 10
2342472.643999995
 20
4857875.300999999
 10
2342474.147999361
 20
4857875.176000046
 10
2342482.288999981
 20
4857874.488000005
 10
2342490.430000005
 20
4857873.539
 10
2342491.960999993
 20
4857873.206999984
 10
2342499.780999959
 20
4857871.359000005
 10
2342501.453000046
 20
4857870.895000008
 10
2342505.195000013
 20
4857870.003999992
 10
2342507.238000007
 20
4857869.605999998
 10
2342508.940999926
 20
4857869.437999995
 10
2342517.065999995
 20
4857868.676000002
 10
2342518.659999981
 20
4857868.402000007
 10
2342524.504000011
 20
4857867.624999999
 10
2342532.58599999
 20
4857866.774000003
 10
2342534.585999999
 20
4857866.644999998
 10
2342536.125000005
 20
4857866.757999998
 10
2342537.734000046
 20
4857867.016000013
 10
2342545.734000045
 20
4857868.524000012
 10
2342551.058999966
 20
4857869.73099999
 10
2342556.422000007
 20
4857871.145000004
 10
2342558.023000036
 20
4857871.699000012
 10
2342561.086000003
 20
4857872.883000001
 10
2342562.519000016
 20
4857873.538999996
 10
2342564.233999985
 20
4857874.398999992
 10
2342565.953000004
 20
4857875.344
 10
2342567.198999998
 20
4857876.285000009
 10
2342568.335999991
 20
4857877.284999993
 10
2342569.554999985
 20
4857878.187999991
 10
2342571.034999997
 20
4857879.374999992
 10
2342572.254000085
 20
4857880.434000033
 10
2342578.391000006
 20
4857885.641000017
 10
2342580.33600001
 20
4857887.414000015
 10
2342583.094
 20
4857889.737999999
 10
2342584.483999958
 20
4857890.519999974
 10
2342585.773000011
 20
4857891.328000015
 10
2342587.214999994
 20
4857892.159999998
 10
2342589.586000003
 20
4857893.641000002
 10
2342590.80100002
 20
4857894.73400002
 10
2342594.453000002
 20
4857897.792999996
 10
2342595.750000002
 20
4857898.750000003
 10
2342597.035000016
 20
4857899.574000005
 10
2342603.625
 20
4857904.145
 10
2342610.215000006
 20
4857908.715000007
 10
2342611.503999995
 20
4857909.527000001
 10
2342615.503999998
 20
4857912.663999999
 10
2342616.512000005
 20
4857913.859000001
 10
2342617.644000003
 20
4857914.918000002
 10
2342618.870999995
 20
4857915.901999985
 10
2342620.137000001
 20
4857916.831999999
 10
2342621.430000013
 20
4857917.616999991
 10
2342624.320000016
 20
4857919.52000001
 10
2342625.819999995
 20
4857920.589999988
 10
2342626.996000015
 20
4857921.538999995
 10
2342633.227000004
 20
4857926.848000005
 10
2342637.960999997
 20
4857930.581999993
 10
2342639.266000033
 20
4857931.516000022
 10
2342640.531000005
 20
4857932.348000002
 10
2342641.738000006
 20
4857933.288999984
 10
2342645.890999982
 20
4857936.753999974
 10
2342650.577999997
 20
4857940.964999984
 10
2342656.808999596
 20
4857946.331999587
 10
2342663.03100002
 20
4857951.680000018
 10
2342669.409999998
 20
4857956.894999993
 10
2342671.218999992
 20
4857958.48399999
 10
2342675.538999998
 20
4857962.563000007
 10
2342676.672000006
 20
4857963.734000014
 10
2342677.804999977
 20
4857964.819999985
 10
2342683.711000081
 20
4857970.305000106
 10
2342689.737999962
 20
4857975.84000001
 10
2342695.727000008
 20
4857981.258000007
 10
2342696.948999998
 20
4857982.241999992
 10
2342698.136999999
 20
4857983.269999987
 10
2342702.172000012
 20
4857987.035000026
 10
2342708.231000008
 20
4857992.570000003
 10
2342709.480999996
 20
4857993.574000009
 10
2342715.844000024
 20
4857998.488000017
 10
2342722.108999992
 20
4858003.593999991
 10
2342725.094000008
 20
4858005.840000003
 10
2342726.469000014
 20
4858006.687999998
 10
2342727.698999999
 20
4858007.573999998
 10
2342729.050999997
 20
4858008.398999997
 10
2342732.535000013
 20
4858010.71500001
 10
2342737.961000009
 20
4858014.035000005
 10
2342739.32000005
 20
4858014.699000024
 10
2342746.660000051
 20
4858018.106000016
 10
2342748.163999992
 20
4858018.878999998
 10
2342749.538999983
 20
4858019.874999981
 10
2342751.516
 20
4858021.413999999
 10
2342751.727
 20
4858022.945
 10
2342752.801000001
 20
4858024.035
 10
2342754.012000001
 20
4858025.058999998
 10
2342755.284999995
 20
4858025.968999992
 10
2342756.585999988
 20
4858026.804999997
 10
2342758.797000001
 20
4858028.347999996
 10
2342760.012
 20
4858029.347999993
 10
2342761.233999999
 20
4858030.448999991
 10
2342762.75400001
 20
4858031.914000001
 10
2342767.737999992
 20
4858036.347999998
 10
2342769.07399998
 20
4858037.35899998
 10
2342772.641000008
 20
4858040.258000017
 10
2342775.390999988
 20
4858042.339999998
 10
2342777.01900004
 20
4858043.484000027
 10
2342783.440999997
 20
4858048.273999997
 10
2342786.039
 20
4858050.058999999
 10
2342787.500000006
 20
4858050.913999997
 10
2342788.773000015
 20
4858051.750000013
 10
2342790.16
 20
4858052.843999993
 10
2342795.425999998
 20
4858056.694999993
 10
2342796.703000009
 20
4858057.524000012
 10
2342798.234000031
 20
4858058.594000032
 10
2342800.558999996
 20
4858060.343999989
 10
2342801.781000002
 20
4858061.399000002
 10
2342806.805
 20
4858065.433999999
 10
2342813.102000003
 20
4858070.484000002
 10
2342814.164000055
 20
4858071.55900004
 10
2342815.113390416
 20
4858072.501951061
 10
2342815.113390416
 20
4858072.501951059
 10
2342819.914000001
 20
4858077.269999999
 10
2342821.238000027
 20
4858078.207000007
 10
2342822.624999999
 20
4858079.108999998
 10
2342829.444999965
 20
4858083.312999983
 10
2342831.0
 20
4858084.358999997
 10
2342833.393421279
 20
4858100.193513122
 10
2342852.859190137
 20
4858138.107049803
 10
2342893.971726455
 20
4858145.695607972
 10
2342935.084262775
 20
4858153.284166141
 10
2342946.865847828
 20
4858159.798763606
 10
2342954.214235005
 20
4858162.411621504
 10
2342955.660000008
 20
4858164.44500001
 10
2342956.801000001
 20
4858166.207
 10
2342957.305
 20
4858167.625
 10
2342957.999999995
 20
4858169.015999991
 10
2342958.753999993
 20
4858170.382999984
 10
2342960.219000063
 20
4858172.809000089
 10
2342964.414
 20
4858179.699000003
 10
2342965.284999992
 20
4858180.925999993
 10
2342966.250000004
 20
4858182.145000009
 10
2342967.358999981
 20
4858183.28899998
 10
2342968.523000004
 20
4858184.374999999
 10
2342969.809000006
 20
4858185.356000009
 10
2342971.75400003
 20
4858186.719000014
 10
2342973.160000004
 20
4858187.594000005
 10
2342974.550999993
 20
4858188.304999996
 10
2342975.995999983
 20
4858188.918
 10
2342977.421999988
 20
4858189.449000004
 10
2342982.344000002
 20
4858191.074000007
 10
2342983.805000033
 20
4858191.453000012
 10
2342985.910000022
 20
4858191.918000001
 10
2342988.643999999
 20
4858192.410000001
 10
2342996.613000008
 20
4858193.57
 10
2342998.340000133
 20
4858193.707000013
 10
2343006.41
 20
4858194.457000001
 10
2343007.952999988
 20
4858194.753999999
 10
2343009.499999983
 20
4858194.933999995
 10
2343011.320000004
 20
4858195.073999999
 10
2343019.309000004
 20
4858195.949000002
 10
2343020.871000026
 20
4858196.340000004
 10
2343022.409999996
 20
4858196.862999997
 10
2343023.749999998
 20
4858197.730999996
 10
2343024.859000004
 20
4858198.824000006
 10
2343026.210999995
 20
4858200.058999996
 10
2343027.400190476
 20
4858201.388095237
 10
2343028.749999998
 20
4858202.062999999
 10
2343033.76899999
 20
4858202.944999997
 10
2343038.718999981
 20
4858204.331999997
 10
2343041.288999996
 20
4858204.823999998
 10
2343043.827999999
 20
4858205.824000002
 10
2343046.319999993
 20
4858207.151999994
 10
2343048.891000001
 20
4858208.184
 10
2343054.499999997
 20
4858209.292999997
 10
2343057.000000001
 20
4858209.913999997
 10
2343064.090000002
 20
4858210.863
 10
2343068.659999999
 20
4858212.093999998
 10
2343071.288999996
 20
4858212.382999999
 10
2343075.859000002
 20
4858213.332
 10
2343078.109000002
 20
4858213.054999999
 10
2343080.051000002
 20
4858212.214999998
 10
2343082.430000001
 20
4858212.132999999
 10
2343084.640999999
 20
4858212.805
 10
2343088.558999998
 20
4858215.651999998
 10
2343093.30899998
 20
4858217.79299999
 10
2343098.359
 20
4858219.813000004
 10
2343100.710999999
 20
4858221.082
 10
2343105.909999995
 20
4858222.063000003
 10
2343108.679999998
 20
4858222.484000001
 10
2343115.289000038
 20
4858224.414000012
 10
2343120.230999995
 20
4858225.804999997
 10
2343122.699000014
 20
4858226.805000005
 10
2343126.620999945
 20
4858229.112999981
 10
2343130.409999993
 20
4858230.523999996
 10
2343137.602000003
 20
4858231.164
 10
2343142.210999998
 20
4858231.382999999
 10
2343146.871000006
 20
4858233.555000004
 10
2343149.140999999
 20
4858234.356000001
 10
2343154.269
 20
4858235.266000004
 10
2343159.788999997
 20
4858236.47299998
 10
2343166.589999994
 20
4858238.063
 10
2343171.429999993
 20
4858239.894999997
 10
2343173.269
 20
4858240.934000001
 10
2343178.671999684
 20
4858245.073999744
 10
2343180.409999997
 20
4858246.426
 10
2343183.46100001
 20
4858249.63300001
 10
2343185.320000005
 20
4858251.285000003
 10
2343190.941000004
 20
4858254.914000002
 10
2343197.371000005
 20
4858258.594000002
 10
2343199.539000017
 20
4858259.434000005
 10
2343206.269000002
 20
4858261.223000002
 10
2343208.269
 20
4858262.023999997
 10
2343212.370999992
 20
4858263.003999999
 10
2343219.890999993
 20
4858263.702999998
 10
2343225.55099999
 20
4858263.734000001
 10
2343230.750000009
 20
4858263.253999999
 10
2343236.449000043
 20
4858263.253999999
 10
2343241.828000014
 20
4858263.152
 10
2343248.289000008
 20
4858262.766000001
 10
2343254.820000043
 20
4858262.702999998
 10
2343260.340000022
 20
4858262.605999999
 10
2343267.26900002
 20
4858262.676000002
 10
2343274.077999995
 20
4858262.953000002
 10
2343281.231000001
 20
4858263.363
 10
2343286.320000009
 20
4858263.434
 10
2343293.89100008
 20
4858263.253999997
 10
2343300.551000017
 20
4858262.991999998
 10
2343302.80100002
 20
4858262.784999998
 10
2343305.011999996
 20
4858262.274000002
 10
2343309.976999977
 20
4858262.093999999
 10
2343315.680000011
 20
4858262.097999999
 10
2343324.250000013
 20
4858262.382999999
 10
2343330.625000401
 20
4858262.218999986
 10
2343339.035000008
 20
4858261.956999998
 10
2343345.894
 20
4858262.612999999
 10
2343346.5
 20
4858262.774
 10
2343353.851999982
 20
4858263.382999999
 10
2343358.839998449
 20
4858263.894999828
 10
2343365.891000008
 20
4858264.664
 10
2343371.320000018
 20
4858264.805
 10
2343373.839999984
 20
4858264.715
 10
2343378.5
 20
4858264.965
 10
2343383.699000006
 20
4858264.632999999
 10
2343389.328000001
 20
4858264.702999999
 10
2343394.621000108
 20
4858264.902000002
 10
2343399.769
 20
4858265.043
 10
2343404.930000013
 20
4858265.183999997
 10
2343410.608999986
 20
4858264.902000001
 10
2343417.750000202
 20
4858264.773999996
 10
2343424.750000014
 20
4858264.574
 10
2343431.980998344
 20
4858264.074000105
 10
2343434.301000001
 20
4858263.926
 10
2343438.819999994
 20
4858262.934000001
 10
2343443.800999999
 20
4858261.113
 10
2343448.768999982
 20
4858258.574000006
 10
2343453.987999982
 20
4858256.652000004
 10
2343456.800999991
 20
4858255.863
 10
2343463.680000379
 20
4858254.753999971
 10
2343470.801000501
 20
4858253.542999914
 10
2343476.398000003
 20
4858252.465000002
 10
2343483.031000036
 20
4858250.452999986
 10
2343489.28100032
 20
4858248.073999858
 10
2343495.090000009
 20
4858245.683999999
 10
2343501.891
 20
4858243.632999999
 10
2343508.422000088
 20
4858241.663999979
 10
2343515.218999959
 20
4858239.754000019
 10
2343521.858999988
 20
4858238.202999999
 10
2343528.410000008
 20
4858237.452999999
 10
2343534.089999978
 20
4858237.043
 10
2343541.198999941
 20
4858237.074
 10
2343547.891000003
 20
4858236.984
 10
2343553.680000151
 20
4858237.145000007
 10
2343560.461000394
 20
4858237.383000013
 10
2343563.289000003
 20
4858237.465
 10
2343569.397999897
 20
4858238.464999978
 10
2343575.28900001
 20
4858239.703000002
 10
2343580.281000071
 20
4858240.414000015
 10
2343585.070000007
 20
4858241.003999999
 10
2343591.87100002
 20
4858242.723000014
 10
2343598.230999671
 20
4858244.081999924
 10
2343605.461000016
 20
4858245.703000001
 10
2343612.60900002
 20
4858247.754000003
 10
2343619.499999582
 20
4858249.503999906
 10
2343624.409999721
 20
4858250.804999778
 10
2343630.030999708
 20
4858252.304999912
 10
2343636.839999992
 20
4858254.305000007
 10
2343643.339999988
 20
4858256.472999999
 10
2343649.71100021
 20
4858258.844000064
 10
2343656.319999999
 20
4858261.042999999
 10
2343663.210999982
 20
4858262.523999996
 10
2343668.190993671
 20
4858263.88299832
 10
2343673.089999955
 20
4858265.234000012
 10
2343680.300999995
 20
4858267.163999999
 10
2343685.359000005
 20
4858267.734000001
 10
2343691.129000008
 20
4858267.804999997
 10
2343697.858999967
 20
4858268.202999996
 10
2343702.858999964
 20
4858268.862999994
 10
2343704.987999998
 20
4858269.323999997
 10
2343712.390999972
 20
4858269.113
 10
2343717.481000003
 20
4858269.254000003
 10
2343722.64100001
 20
4858269.863000003
 10
2343726.660000017
 20
4858270.774000007
 10
2343731.879000021
 20
4858272.293000005
 10
2343738.339999958
 20
4858273.612999989
 10
2343744.659999835
 20
4858275.144999923
 10
2343749.262000119
 20
4858276.27400002
 10
2343754.698999996
 20
4858277.343999997
 10
2343760.219000011
 20
4858278.895000004
 10
2343760.469
 20
4858278.98957466
 10
2343760.468999999
 20
4858328.132999997
 10
2343755.390999999
 20
4858312.862999998
 10
2343751.214937811
 20
4858307.404780207
 10
2343737.501336243
 20
4858297.851590977
 10
2343724.874972626
 20
4858290.359146032
 10
2343708.549198713
 20
4858284.897749591
 10
2343689.275815612
 20
4858280.331950736
 10
2343674.285391802
 20
4858276.05152369
 10
2343664.244653899
 20
4858273.329285212
 10
2343647.112759774
 20
4858270.618344187
 10
2343636.690853781
 20
4858271.474427373
 10
2343631.694046083
 20
4858276.896309432
 10
2343628.379
 20
4858282.035
  0
LINE
  5
151
330
1F
100
AcDbEntity
  8
ZONE
100
AcDbLine
 10
2342382.062674392
 20
4858033.869469815
 30
0.0
 11
2342383.1567671
 21
4858032.809446179
 31
0.0
  0
LINE
  5
152
330
1F
100
AcDbEntity
  8
ZONE
100
AcDbLine
 10
2342434.509492941
 20
4857964.832951044
 30
0.0
 11
2342436.441957978
 21
4857966.419008697
 31
0.0
  0
LINE
  5
153
330
1F
100
AcDbEntity
  8
ZONE
100
AcDbLine
 10
2342382.315923079
 20
4858030.143184571
 30
0.0
 11
2342382.118584696
 21
4858030.334378011
 31
0.0
  0
LWPOLYLINE
  5
154
330
1F
100
AcDbEntity
  8
ZONE
100
AcDbPolyline
 90
       22
 70
     1
 43
0.0
 10
2342418.870597708
 20
4857997.737383389
 10
2342417.742757369
 20
4857998.84032659
 10
2342416.16761867
 20
4857997.214563059
 10
2342418.106738103
 20
4857994.861358768
 10
2342422.792051213
 20
4857987.930723738
 10
2342426.988805016
 20
4857981.28341436
 10
2342428.258935359
 20
4857979.017627656
 10
2342430.087867603
 20
4857976.923917687
 10
2342429.581111208
 20
4857976.658996936
 10
2342430.227899774
 20
4857975.505190204
 10
2342433.843861145
 20
4857969.584550176
 10
2342436.441957978
 20
4857966.419008699
 10
2342434.509492941
 20
4857964.832951043
 10
2342435.180000003
 20
4857964.016000002
 10
2342438.789
 20
4857960.492000001
 10
2342442.172
 20
4857958.374999999
 10
2342446.59
 20
4857956.563000001
 10
2342451.391
 20
4857956.004
 10
2342455.839999997
 20
4857956.042999998
 10
2342460.929999996
 20
4857956.703
 10
2342466.487999999
 20
4857957.964999999
 10
2342468.922213892
 20
4857958.678329018
  0
LWPOLYLINE
  5
155
330
1F
100
AcDbEntity
  8
ZONE
100
AcDbPolyline
 90
       23
 70
     1
 43
0.0
 10
2342538.543683761
 20
4858154.256975639
 10
2342546.768110667
 20
4858164.313540179
 10
2342555.339500001
 20
4858173.707000001
 10
2342554.797000001
 20
4858177.664000002
 10
2342552.088000011
 20
4858181.437499985
 10
2342549.75
 20
4858184.284999999
 10
2342548.715
 20
4858185.058999997
 10
2342545.719000002
 20
4858186.715
 10
2342542.105999999
 20
4858186.609310276
 10
2342539.965000001
 20
4858185.789
 10
2342478.292626555
 20
4858121.474407978
 10
2342481.97099868
 20
4858114.894427568
 10
2342483.955420615
 20
4858111.388949356
 10
2342493.967699355
 20
4858094.430644918
 10
2342500.452448713
 20
4858104.986812207
 10
2342494.698851722
 20
4858116.790336667
 10
2342499.249350459
 20
4858119.19865563
 10
2342501.987999999
 20
4858114.023999999
 10
2342504.924000001
 20
4858111.379
 10
2342508.038899518
 20
4858114.714789406
 10
2342512.896113007
 20
4858120.9630659
 10
2342519.235229647
 20
4858129.825240896
 10
2342529.17161608
 20
4858143.067169804
  0
LINE
  5
156
330
1F
100
AcDbEntity
  8
ZONE
100
AcDbLine
 10
2342416.611643208
 20
4858019.273234289
 30
0.0
 11
2342414.36388099
 21
4858018.202074338
 31
0.0
  0
LWPOLYLINE
  5
157
330
1F
100
AcDbEntity
  8
ZONE
100
AcDbPolyline
 90
       69
 70
     1
 43
0.0
 10
2342483.968627721
 20
4858068.89600078
 10
2342489.351340972
 20
4858075.60044604
 10
2342490.731
 20
4858076.664000001
 10
2342501.218999999
 20
4858082.144999999
 10
2342502.204443985
 20
4858085.787937868
 10
2342498.33424148
 20
4858088.165438387
 10
2342506.416918475
 20
4858101.322784306
 10
2342515.147531585
 20
4858112.465834587
 10
2342521.334912549
 20
4858120.321480003
 10
2342533.896304238
 20
4858135.88443073
 10
2342546.243019462
 20
4858151.248069809
 10
2342559.46033655
 20
4858166.251527901
 10
2342562.808999998
 20
4858169.964999996
 10
2342569.129000001
 20
4858175.773999999
 10
2342571.769
 20
4858174.215
 10
2342575.531488957
 20
4858179.488861298
 10
2342575.2891
 20
4858183.683699998
 10
2342572.711
 20
4858184.363000001
 10
2342570.442340253
 20
4858186.64570098
 10
2342563.093756854
 20
4858179.535422722
 10
2342555.698891964
 20
4858184.286271501
 10
2342552.088000001
 20
4858181.437499999
 10
2342554.797
 20
4858177.664000002
 10
2342555.339500001
 20
4858173.707000002
 10
2342546.768110668
 20
4858164.313540179
 10
2342538.543683758
 20
4858154.25697564
 10
2342529.171616079
 20
4858143.067169806
 10
2342519.235229655
 20
4858129.825240906
 10
2342512.896113011
 20
4858120.963065905
 10
2342508.03889952
 20
4858114.714789405
 10
2342504.924
 20
4858111.379
 10
2342501.987999999
 20
4858114.023999997
 10
2342499.249350459
 20
4858119.198655628
 10
2342494.698851722
 20
4858116.790336667
 10
2342500.452448713
 20
4858104.986812207
 10
2342493.967699356
 20
4858094.430644918
 10
2342494.138057536
 20
4858094.142100626
 10
2342483.350918348
 20
4858078.900236012
 10
2342462.561238117
 20
4858057.314964615
 10
2342449.539061355
 20
4858047.003907301
 10
2342445.332432183
 20
4858053.364876503
 10
2342436.339999999
 20
4858047.417999999
 10
2342437.672
 20
4858046.105999999
 10
2342435.245999999
 20
4858040.538999999
 10
2342436.025787465
 20
4858039.271905798
 10
2342430.073051672
 20
4858035.192224273
 10
2342421.857781662
 20
4858030.40067328
 10
2342413.674282189
 20
4858025.62765243
 10
2342411.253474265
 20
4858024.474028401
 10
2342412.119422832
 20
4858023.268576442
 10
2342413.909412191
 20
4858019.745422713
 10
2342414.36388099
 20
4858018.202074337
 10
2342416.611643208
 20
4858019.273234289
 10
2342416.948999994
 20
4858019.433999993
 10
2342425.3845
 20
4858024.354
 10
2342433.819999993
 20
4858029.273999993
 10
2342444.437999299
 20
4858036.550999658
 10
2342446.230999999
 20
4858037.773999998
 10
2342448.519000006
 20
4858038.574000001
 10
2342450.301000002
 20
4858038.632999998
 10
2342452.609
 20
4858037.824000001
 10
2342453.805
 20
4858036.063000001
 10
2342454.003999999
 20
4858034.081999999
 10
2342461.069999999
 20
4858040.949000001
 10
2342456.250000001
 20
4858040.883
 10
2342456.255349296
 20
4858043.163915389
 10
2342459.280401024
 20
4858045.323424402
 10
2342471.330645226
 20
4858055.737382107
 10
2342477.331026459
 20
4858061.696844497
  0
LWPOLYLINE
  5
158
330
1F
100
AcDbEntity
  8
ZONE
100
AcDbPolyline
 90
      158
 70
     1
 43
0.0
 10
2342816.441570619
 20
4858189.38028956
 10
2342812.690113644
 20
4858189.277107968
 10
2342804.044449631
 20
4858189.633423187
 10
2342796.735735407
 20
4858190.524232949
 10
2342786.389708223
 20
4858191.78524025
 10
2342783.658909714
 20
4858193.038362552
 10
2342780.928111203
 20
4858194.291484854
 10
2342776.693331057
 20
4858201.862585264
 10
2342774.505480229
 20
4858210.407634145
 10
2342781.573961283
 20
4858216.86207137
 10
2342786.163211981
 20
4858221.497419462
 10
2342790.761716634
 20
4858226.804175981
 10
2342794.792324137
 20
4858232.370252983
 10
2342796.906142762
 20
4858237.105416026
 10
2342798.409715852
 20
4858241.672200702
 10
2342800.031961394
 20
4858245.725239561
 10
2342801.392438978
 20
4858252.675950255
 10
2342803.482597114
 20
4858260.095252494
 10
2342804.476185948
 20
4858264.165436182
 10
2342806.76567553
 20
4858270.882283142
 10
2342808.367208171
 20
4858276.037693006
 10
2342809.703769944
 20
4858280.193093714
 10
2342812.110668527
 20
4858286.040558898
 10
2342814.782091509
 20
4858290.706907689
 10
2342817.800434028
 20
4858294.35860735
 10
2342822.400864242
 20
4858299.154907419
 10
2342825.623651437
 20
4858302.084713971
 10
2342827.371670851
 20
4858303.314090261
 10
2342829.316502608
 20
4858304.362476103
 10
2342835.286512539
 20
4858308.473225291
 10
2342839.71533883
 20
4858311.157822
 10
2342844.002476955
 20
4858313.853752799
 10
2342848.788945608
 20
4858316.644593319
 10
2342853.503454688
 20
4858319.452911609
 10
2342873.963791773
 20
4858332.637246526
 10
2342830.132808654
 20
4858360.28929052
 10
2342673.491773605
 20
4858302.275884635
 10
2342663.539583892
 20
4858298.590002315
 10
2342659.744851268
 20
4858308.836096944
 10
2342654.466943318
 20
4858302.558225089
 10
2342650.014788874
 20
4858297.238709962
 10
2342644.555754984
 20
4858289.748371858
 10
2342638.86774217
 20
4858283.034127961
 10
2342613.604328546
 20
4858243.644276133
 10
2342613.198999998
 20
4858243.093999995
 10
2342609.929999991
 20
4858239.94499999
 10
2342606.090000001
 20
4858235.645000005
 10
2342602.059000004
 20
4858230.453000007
 10
2342597.621
 20
4858225.313000001
 10
2342593.839999999
 20
4858219.733999995
 10
2342590.269000004
 20
4858214.863000005
 10
2342587.703374724
 20
4858210.583762586
 10
2342587.694670804
 20
4858210.589241164
 10
2342576.590000001
 20
4858192.594000001
 10
2342570.442340253
 20
4858186.645700981
 10
2342572.710999999
 20
4858184.363000001
 10
2342575.2891
 20
4858183.683699998
 10
2342575.531488957
 20
4858179.488861297
 10
2342571.769
 20
4858174.215
 10
2342569.129000001
 20
4858175.773999999
 10
2342562.808999997
 20
4858169.964999996
 10
2342559.46033658
 20
4858166.251527931
 10
2342546.243019467
 20
4858151.248069819
 10
2342533.896304316
 20
4858135.884430819
 10
2342521.334912549
 20
4858120.321479992
 10
2342515.147531559
 20
4858112.465834574
 10
2342506.416918475
 20
4858101.322784308
 10
2342498.33424148
 20
4858088.165438387
 10
2342502.204443984
 20
4858085.787937867
 10
2342501.218999998
 20
4858082.144999998
 10
2342490.731000001
 20
4858076.664000001
 10
2342489.351340972
 20
4858075.60044604
 10
2342483.968627717
 20
4858068.896000772
 10
2342477.331026461
 20
4858061.696844496
 10
2342471.330645233
 20
4858055.737382115
 10
2342459.280401021
 20
4858045.3234244
 10
2342456.255349296
 20
4858043.163915389
 10
2342456.250000001
 20
4858040.883
 10
2342461.069999999
 20
4858040.949000002
 10
2342454.003999999
 20
4858034.081999999
 10
2342453.804999999
 20
4858036.062999999
 10
2342452.608999999
 20
4858037.824000001
 10
2342450.300999999
 20
4858038.632999999
 10
2342448.519000007
 20
4858038.574000001
 10
2342446.230999997
 20
4858037.773999997
 10
2342444.437999432
 20
4858036.5509998
 10
2342433.819999992
 20
4858029.273999991
 10
2342425.3845
 20
4858024.354
 10
2342416.948999992
 20
4858019.433999992
 10
2342416.611643208
 20
4858019.273234289
 10
2342414.36388099
 20
4858018.202074337
 10
2342415.030322193
 20
4858015.938880589
 10
2342415.5228701
 20
4858012.125785205
 10
2342415.618201581
 20
4858009.160474558
 10
2342416.056907429
 20
4858006.373141382
 10
2342417.013332304
 20
4858003.829728324
 10
2342418.506126597
 20
4858001.590536889
 10
2342419.482366956
 20
4858000.63584709
 10
2342417.742757369
 20
4857998.84032659
 10
2342418.870597713
 20
4857997.737383389
 10
2342468.922213892
 20
4857958.678329018
 10
2342472.180000002
 20
4857959.633000001
 10
2342487.301000002
 20
4857966.484000002
 10
2342504.425499944
 20
4857975.464999969
 10
2342521.160000021
 20
4857984.676000005
 10
2342536.320000029
 20
4857993.733999994
 10
2342548.980999993
 20
4858001.094000008
 10
2342562.0
 20
4858008.023999998
 10
2342565.867874262
 20
4858001.795238153
 10
2342567.917153244
 20
4857998.495112588
 10
2342595.004214551
 20
4858011.880249112
 10
2342598.108432367
 20
4858014.554031062
 10
2342605.207629421
 20
4858020.656009021
 10
2342610.898207004
 20
4858025.308205615
 10
2342612.272455292
 20
4858026.605788668
 10
2342613.170408435
 20
4858027.533858508
 10
2342616.03943844
 20
4858030.283873136
 10
2342622.649429666
 20
4858036.422681455
 10
2342629.10972245
 20
4858042.355603384
 10
2342637.266497842
 20
4858049.734699922
 10
2342638.577378519
 20
4858050.790269961
 10
2342641.119632078
 20
4858053.162409921
 10
2342649.641493617
 20
4858060.947275983
 10
2342653.791149153
 20
4858064.280279314
 10
2342659.90003918
 20
4858068.998035959
 10
2342666.603034979
 20
4858074.461004286
 10
2342674.308082497
 20
4858080.258504029
 10
2342676.481740006
 20
4858081.599057897
 10
2342677.884952743
 20
4858082.609827394
 10
2342680.681007404
 20
4858084.31599981
 10
2342684.119648311
 20
4858086.601847203
 10
2342694.622800534
 20
4858093.028398137
 10
2342695.534099002
 20
4858093.473653607
 10
2342698.695367859
 20
4858096.146766168
 10
2342703.049196069
 20
4858099.25908641
 10
2342710.583202836
 20
4858105.96169195
 10
2342713.521404431
 20
4858108.185136416
 10
2342717.080534266
 20
4858111.077740109
 10
2342722.33920919
 20
4858115.059035094
 10
2342724.231226233
 20
4858116.388560581
 10
2342731.033681732
 20
4858121.46233229
 10
2342738.184155423
 20
4858126.332388756
 10
2342744.320626747
 20
4858130.819960175
 10
2342745.208502756
 20
4858131.396349532
 10
2342752.96295905
 20
4858137.621374203
 10
2342761.80732989
 20
4858146.405757137
 10
2342770.690047974
 20
4858152.69209161
 10
2342774.471664282
 20
4858155.151369136
 10
2342780.69609912
 20
4858158.988249493
 10
2342782.200079561
 20
4858159.999930215
 10
2342787.313913587
 20
4858163.161858619
 10
2342797.198437641
 20
4858168.899049899
 10
2342805.402521957
 20
4858173.137820569
 10
2342806.244842432
 20
4858173.642116557
 10
2342811.221264914
 20
4858176.297894765
 10
2342817.401669937
 20
4858179.312185096
 10
2342817.602650027
 20
4858182.503688326
 10
2342817.848401447
 20
4858186.406146765
  0
ENDSEC
  0
SECTION
  2
OBJECTS
  0
DICTIONARY
  5
C
330
0
100
AcDbDictionary
281
     1
  3
ACAD_COLOR
350
6B
  3
ACAD_GROUP
350
D
  3
ACAD_LAYOUT
350
1A
  3
ACAD_MATERIAL
350
6A
  3
ACAD_MLINESTYLE
350
17
  3
ACAD_PLOTSETTINGS
350
19
  3
ACAD_PLOTSTYLENAME
350
E
  3
ACAD_TABLESTYLE
350
7E
  3
AcDbVariableDictionary
350
5E
  0
DICTIONARY
  5
F4
330
2
100
AcDbDictionary
280
     1
281
     1
  3
ACAD_LAYERSTATES
360
F5
  0
DICTIONARY
  5
6B
102
{ACAD_REACTORS
330
C
102
}
330
C
100
AcDbDictionary
281
     1
  0
DICTIONARY
  5
D
102
{ACAD_REACTORS
330
C
102
}
330
C
100
AcDbDictionary
281
     1
  0
DICTIONARY
  5
1A
102
{ACAD_REACTORS
330
C
102
}
330
C
100
AcDbDictionary
281
     1
  3
Layout1
350
D3
  3
Layout2
350
D7
  3
Model
350
22
  0
DICTIONARY
  5
6A
102
{ACAD_REACTORS
330
C
102
}
330
C
100
AcDbDictionary
281
     1
  0
DICTIONARY
  5
17
102
{ACAD_REACTORS
330
C
102
}
330
C
100
AcDbDictionary
281
     1
  3
Standard
350
18
  0
DICTIONARY
  5
19
102
{ACAD_REACTORS
330
C
102
}
330
C
100
AcDbDictionary
281
     1
  0
ACDBDICTIONARYWDFLT
  5
E
102
{ACAD_REACTORS
330
C
102
}
330
C
100
AcDbDictionary
281
     1
  3
Normal
350
F
100
AcDbDictionaryWithDefault
340
F
  0
DICTIONARY
  5
7E
102
{ACAD_REACTORS
330
C
102
}
330
C
100
AcDbDictionary
281
     1
  3
Standard
350
7F
  0
DICTIONARY
  5
5E
102
{ACAD_REACTORS
330
C
102
}
330
C
100
AcDbDictionary
281
     1
  3
CTABLESTYLE
350
84
  3
DIMASSOC
350
5F
  3
HIDETEXT
350
63
  0
DICTIONARY
  5
F5
102
{ACAD_REACTORS
330
F4
102
}
330
F4
100
AcDbDictionary
281
     1
  0
LAYOUT
  5
D3
102
{ACAD_REACTORS
330
1A
102
}
330
1A
100
AcDbPlotSettings
  1

  2
C:\Documents and Settings\basas\Application Data\Autodesk\AutoCAD 2005\R16.1\enu\plotters\Default Windows System Printer.pc3
  4

  6

 40
0.0
 41
0.0
 42
0.0
 43
0.0
 44
0.0
 45
0.0
 46
0.0
 47
0.0
 48
0.0
 49
0.0
140
0.0
141
0.0
142
1.0
143
1.0
 70
   688
 72
     0
 73
     0
 74
     5
  7

 75
    16
147
1.0
 76
     0
 77
     2
 78
   300
148
0.0
149
0.0
100
AcDbLayout
  1
Layout1
 70
     1
 71
     1
 10
0.0
 20
0.0
 11
12.0
 21
9.0
 12
0.0
 22
0.0
 32
0.0
 14
0.0
 24
0.0
 34
0.0
 15
0.0
 25
0.0
 35
0.0
146
0.0
 13
0.0
 23
0.0
 33
0.0
 16
1.0
 26
0.0
 36
0.0
 17
0.0
 27
1.0
 37
0.0
 76
     0
330
D2
  0
LAYOUT
  5
D7
102
{ACAD_REACTORS
330
1A
102
}
330
1A
100
AcDbPlotSettings
  1

  2
C:\Documents and Settings\basas\Application Data\Autodesk\AutoCAD 2005\R16.1\enu\plotters\Default Windows System Printer.pc3
  4

  6

 40
0.0
 41
0.0
 42
0.0
 43
0.0
 44
0.0
 45
0.0
 46
0.0
 47
0.0
 48
0.0
 49
0.0
140
0.0
141
0.0
142
1.0
143
1.0
 70
   688
 72
     0
 73
     0
 74
     5
  7

 75
    16
147
1.0
 76
     0
 77
     2
 78
   300
148
0.0
149
0.0
100
AcDbLayout
  1
Layout2
 70
     1
 71
     2
 10
0.0
 20
0.0
 11
12.0
 21
9.0
 12
0.0
 22
0.0
 32
0.0
 14
0.0
 24
0.0
 34
0.0
 15
0.0
 25
0.0
 35
0.0
146
0.0
 13
0.0
 23
0.0
 33
0.0
 16
1.0
 26
0.0
 36
0.0
 17
0.0
 27
1.0
 37
0.0
 76
     0
330
D6
  0
LAYOUT
  5
22
102
{ACAD_REACTORS
330
1A
102
}
330
1A
100
AcDbPlotSettings
  1

  2
none_device
  4
ISO_A4_(210.00_x_297.00_MM)
  6

 40
7.5
 41
20.0
 42
7.5
 43
20.0
 44
210.0
 45
297.0
 46
11.54999923706054
 47
-13.65000009536743
 48
0.0
 49
0.0
140
0.0
141
0.0
142
1.0
143
8.704084754739808
 70
 11952
 72
     1
 73
     0
 74
     0
  7

 75
     0
147
0.1148885871608098
 76
     0
 77
     2
 78
   300
148
0.0
149
0.0
100
AcDbLayout
  1
Model
 70
     1
 71
     0
 10
0.0
 20
0.0
 11
12.0
 21
9.0
 12
0.0
 22
0.0
 32
0.0
 14
0.0
 24
0.0
 34
0.0
 15
0.0
 25
0.0
 35
0.0
146
0.0
 13
0.0
 23
0.0
 33
0.0
 16
1.0
 26
0.0
 36
0.0
 17
0.0
 27
1.0
 37
0.0
 76
     0
330
1F
1001
ACAD_PSEXT
1000
None
1000
None
1000
Not applicable
1000
The layout will not be plotted unless a new plotter configuration name is selected.
1070
     0
  0
MLINESTYLE
  5
18
102
{ACAD_REACTORS
330
17
102
}
330
17
100
AcDbMlineStyle
  2
STANDARD
 70
     0
  3

 62
   256
 51
90.0
 52
90.0
 71
     2
 49
0.5
 62
   256
  6
BYLAYER
 49
-0.5
 62
   256
  6
BYLAYER
  0
ACDBPLACEHOLDER
  5
F
102
{ACAD_REACTORS
330
E
102
}
330
E
  0
TABLESTYLE
  5
7F
102
{ACAD_REACTORS
330
7E
102
}
330
7E
100
AcDbTableStyle
  3
Standard
 70
     0
 71
     0
 40
1.5
 41
1.5
280
     0
281
     0
  7
Standard
140
4.5
170
     2
 62
     0
 63
     7
283
     0
274
    -2
284
     1
 64
     0
275
    -2
285
     1
 65
     0
276
    -2
286
     1
 66
     0
277
    -2
287
     1
 67
     0
278
    -2
288
     1
 68
     0
279
    -2
289
     1
 69
     0
  7
Standard
140
6.0
170
     5
 62
     0
 63
     7
283
     0
274
    -2
284
     1
 64
     0
275
    -2
285
     1
 65
     0
276
    -2
286
     1
 66
     0
277
    -2
287
     1
 67
     0
278
    -2
288
     1
 68
     0
279
    -2
289
     1
 69
     0
  7
Standard
140
4.5
170
     5
 62
     0
 63
     7
283
     0
274
    -2
284
     1
 64
     0
275
    -2
285
     1
 65
     0
276
    -2
286
     1
 66
     0
277
    -2
287
     1
 67
     0
278
    -2
288
     1
 68
     0
279
    -2
289
     1
 69
     0
  0
DICTIONARYVAR
  5
84
102
{ACAD_REACTORS
330
5E
102
}
330
5E
100
DictionaryVariables
280
     0
  1
STANDARD
  0
DICTIONARYVAR
  5
5F
102
{ACAD_REACTORS
330
5E
102
}
330
5E
100
DictionaryVariables
280
     0
  1
2
  0
DICTIONARYVAR
  5
63
102
{ACAD_REACTORS
330
5E
102
}
330
5E
100
DictionaryVariables
280
     0
  1
1
  0
ENDSEC
  0
EOF
